0
SECTION
2
HEADER
9
$ACADVER
1
AC1015
9
$ACADMAINTVER
 70
6
9
$DWGCODEPAGE
3
ANSI_932
9
$EXTMIN
10
0.000
20
0.000
30
0.0
9
$EXTMAX
10
4200.000
20
2970.000
30
0.0
9
$LIMMIN
10
0.000
20
0.000
9
$LIMMAX
10
4200.000
20
2970.000
9
$DIMSCALE
40
10.000000
9
$LTSCALE
40
10.000
9
$PDMODE
70
0
9
$PDSIZE
40
40.0
9
$HANDSEED
5
61e52
9
$UNITMODE
70
0
9
$VISRETAIN
70
0
9
$PLINEGEN
70
0
9
$PSLTSCALE
70
1
9
$TREEDEPTH
70
3020
9
$CMLSTYLE
2
STANDARD
9
$CMLJUST
70
0
9
$CMLSCALE
40
1.0
9
$PROXYGRAPHICS
70
1
9
$MEASUREMENT
70
0
9
$CELWEIGHT
370
-1
9
$ENDCAPS
280
0
9
$JOINSTYLE
280
0
9
$LWDISPLAY
290
0
9
$INSUNITS
70
0
9
$HYPERLINKBASE
1

9
$STYLESHEET
1

9
$XEDIT
290
1
9
$CEPSNTYPE
380
0
9
$PSTYLEMODE
290
1
9
$FINGERPRINTGUID
2
{5F082321-0195-11D3-BDFB-0060B0CD5109}
9
$VERSIONGUID
2
{12943756-294D-11D3-98C2-0060B087942D}
9
$EXTNAMES
290
1
9
$PSVPSCALE
40
0.0
9
$OLESTARTUP
290
0
0
ENDSEC
0
SECTION
  2
CLASSES
0
ENDSEC
0
SECTION
2
TABLES
0
TABLE
2
VPORT
5
190
100
AcDbSymbolTable
70
2
0
VPORT
5
191
100
AcDbSymbolTableRecord
100
AcDbViewportTableRecord
2
*ACTIVE
70
0
10
0.0
20
0.0
11
1.0
21
1.0
12
2100.000
22
1485.000
13
0.0
23
0.0
14
1.0
24
1.0
15
0.0
25
0.0
16
0.0
26
0.0
36
1.0
17
0.0
27
0.0
37
0.0
40
3043.478
41
2.0
42
50.0
43
0.0
44
0.0
50
0.0
51
0.0
71
0
72
1000
73
1
74
1
75
0
76
0
77
0
78
0
0
ENDTAB
0
TABLE
2
LTYPE
5
1f4
100
AcDbSymbolTable
70
9
0
LTYPE
5
1f5
100
AcDbSymbolTableRecord
100
AcDbLinetypeTableRecord
2
BYBLOCK
70
 64
3

72
 65
73
  0
40
0.0
0
LTYPE
5
1f6
100
AcDbSymbolTableRecord
100
AcDbLinetypeTableRecord
2
BYLAYER
70
 64
3

72
 65
73
  0
40
0.0
0
LTYPE
5
1f7
100
AcDbSymbolTableRecord
100
AcDbLinetypeTableRecord
2
CONTINUOUS
70
64
3
SolidLine
72
65
73
0
40
0.0
0
LTYPE
5
1f8
100
AcDbSymbolTableRecord
100
AcDbLinetypeTableRecord
2
DOT
70
64
3
--  --  --  --  --  --  --  --     
72
65
73
2
40
3.000
49
1.000
74
0
49
-2.000
74
0
0
LTYPE
5
1f9
100
AcDbSymbolTableRecord
100
AcDbLinetypeTableRecord
2
DASHED
70
64
3
----    ----    ----    ----    
72
65
73
2
40
5.000
49
2.000
74
0
49
-3.000
74
0
0
LTYPE
5
1fa
100
AcDbSymbolTableRecord
100
AcDbLinetypeTableRecord
2
DASHED2
70
64
3
------  ------  ------  ------ 
72
65
73
2
40
10.000
49
4.000
74
0
49
-6.000
74
0
0
LTYPE
5
1fb
100
AcDbSymbolTableRecord
100
AcDbLinetypeTableRecord
2
CENTER
70
64
3
----- - ----- - ----- - ----- - 
72
65
73
4
40
10.000
49
6.000
74
0
49
-3.000
74
0
49
1.000
74
0
49
-3.000
74
0
0
LTYPE
5
1fc
100
AcDbSymbolTableRecord
100
AcDbLinetypeTableRecord
2
CENTER2
70
64
3
----------  --  ----------  -- 
72
65
73
4
40
17.000
49
12.000
74
0
49
-5.000
74
0
49
2.000
74
0
49
-5.000
74
0
0
LTYPE
5
1fd
100
AcDbSymbolTableRecord
100
AcDbLinetypeTableRecord
2
PHANTOM
70
64
3
--- - - --- - - --- - - --- - -
72
65
73
6
40
13.000
49
5.000
74
0
49
-3.000
74
0
49
1.000
74
0
49
-3.000
74
0
49
1.000
74
0
49
-3.000
74
0
0
LTYPE
5
1fe
100
AcDbSymbolTableRecord
100
AcDbLinetypeTableRecord
2
PHANTOM2
70
64
3
--------  -  -  --------  -  -
72
65
73
6
40
20.000
49
6.000
74
0
49
-5.000
74
0
49
2.000
74
0
49
-5.000
74
0
49
2.000
74
0
49
-5.000
74
0
0
LTYPE
5
1ff
100
AcDbSymbolTableRecord
100
AcDbLinetypeTableRecord
2
HIDDEN
70
64
3
-   -   -   -   -   -   -   -   
72
65
73
2
40
3.000
49
0.500
74
0
49
-2.500
74
0
0
ENDTAB
0
TABLE
2
STYLE
5
200
100
AcDbSymbolTable
70
1
0
STYLE
5
201
100
AcDbSymbolTableRecord
100
AcDbTextStyleTableRecord
2
STANDARD
70
0
40
0.0
41
1.0
50
0.0
71
0
42
0.0
3
txt.shx
4
extfont.shx
0
STYLE
5
202
100
AcDbSymbolTableRecord
100
AcDbTextStyleTableRecord
2
TATEGAKI
70
4
40
0.0
41
1.0
50
0.0
71
0
42
0.0
3
txt.shx
4
extfont.shx
0
STYLE
5
203
100
AcDbSymbolTableRecord
100
AcDbTextStyleTableRecord
2
DIM
70
0
40
0.0
41
0.75
50
0.0
71
0
42
0.0
3
txt.shx
4
extfont.shx
0
STYLE
5
204
100
AcDbSymbolTableRecord
100
AcDbTextStyleTableRecord
2
_Gothic_
70
0
40
1.0
41
1.0
50
0.0
71
0
42
10.0
3

4

1001
ACAD
1000
MS Gothic
1071
32817
0
STYLE
5
205
100
AcDbSymbolTableRecord
100
AcDbTextStyleTableRecord
2
_TateGothic_
70
4
40
0.0
41
1.0
50
0.0
71
0
42
0.0
3
@MS Gothic
4

0
ENDTAB
0
TABLE
2
VIEW
5
206
100
AcDbSymbolTable
70
0
0
ENDTAB
0
TABLE
2
UCS
5
207
100
AcDbSymbolTable
70
0
0
ENDTAB
0
TABLE
2
APPID
5
208
100
AcDbSymbolTable
70
1
0
APPID
5
209
100
AcDbSymbolTableRecord
100
AcDbRegAppTableRecord
2
ACAD
70
0
0
ENDTAB
0
TABLE
2
DIMSTYLE
5
403
330
0
100
AcDbSymbolTable
70
1
100
AcDbDimStyleTable
71
0
0
DIMSTYLE
105
404
330
402
100
AcDbSymbolTableRecord
100
AcDbDimStyleTableRecord
2
JAC_DIM
70
0
41
20.000
42
0.000
44
0.0
73
0
74
0
77
1
78
8
79
2
140
35.000
170
0
171
2
172
0
173
0
174
0
175
0
176
0
177
0
178
0
270
2
271
0
272
0
273
2
274
2
340
201
275
0
280
0
281
0
282
0
283
0
284
0
285
0
286
0
287
3
288
0
0
ENDTAB
0
TABLE
2
BLOCK_RECORD
5
405
100
AcDbSymbolTable
70
0
0
BLOCK_RECORD
5
406
100
AcDbSymbolTableRecord
100
AcDbBlockTableRecord
2
*MODEL_SPACE
0
BLOCK_RECORD
5
407
100
AcDbSymbolTableRecord
100
AcDbBlockTableRecord
2
*PAPER_SPACE
0
BLOCK_RECORD
5
408
100
AcDbSymbolTableRecord
100
AcDbBlockTableRecord
2
_JACCONVERT_
0
BLOCK_RECORD
5
409
100
AcDbSymbolTableRecord
100
AcDbBlockTableRecord
2
33-108X-2__35_0
0
BLOCK_RECORD
5
40a
100
AcDbSymbolTableRecord
100
AcDbBlockTableRecord
2
33-108X-2__36_1
0
BLOCK_RECORD
5
40b
100
AcDbSymbolTableRecord
100
AcDbBlockTableRecord
2
33-108X-2__37_2
0
BLOCK_RECORD
5
40c
100
AcDbSymbolTableRecord
100
AcDbBlockTableRecord
2
33-108X-1__38_3
0
BLOCK_RECORD
5
40d
100
AcDbSymbolTableRecord
100
AcDbBlockTableRecord
2
33-108AX__39_4
0
BLOCK_RECORD
5
40e
100
AcDbSymbolTableRecord
100
AcDbBlockTableRecord
2
33-108X-1__40_5
0
BLOCK_RECORD
5
40f
100
AcDbSymbolTableRecord
100
AcDbBlockTableRecord
2
33-108X-2__41_6
0
BLOCK_RECORD
5
410
100
AcDbSymbolTableRecord
100
AcDbBlockTableRecord
2
33-108AX__42_7
0
BLOCK_RECORD
5
411
100
AcDbSymbolTableRecord
100
AcDbBlockTableRecord
2
87-63_8
0
ENDTAB
0
TABLE
2
LAYER
5
412
100
AcDbSymbolTable
70
10
0
LAYER
5
413
100
AcDbSymbolTableRecord
100
AcDbLayerTableRecord
2
0
70
0
62
7
6
CONTINUOUS
370
-3
390
14
0
LAYER
5
414
100
AcDbSymbolTableRecord
100
AcDbLayerTableRecord
2
1-0
70
0
62
7
6
CONTINUOUS
370
-3
390
14
0
LAYER
5
415
100
AcDbSymbolTableRecord
100
AcDbLayerTableRecord
2
1-1左右フレーム
70
0
62
7
6
CONTINUOUS
370
-3
390
14
0
LAYER
5
416
100
AcDbSymbolTableRecord
100
AcDbLayerTableRecord
2
1-2前後フレーム
70
0
62
7
6
CONTINUOUS
370
-3
390
14
0
LAYER
5
417
100
AcDbSymbolTableRecord
100
AcDbLayerTableRecord
2
1-3中フレーム
70
0
62
7
6
CONTINUOUS
370
-3
390
14
0
LAYER
5
418
100
AcDbSymbolTableRecord
100
AcDbLayerTableRecord
2
1-4取付位置
70
0
62
7
6
CONTINUOUS
370
-3
390
14
0
LAYER
5
419
100
AcDbSymbolTableRecord
100
AcDbLayerTableRecord
2
1-5棚板受
70
0
62
7
6
CONTINUOUS
370
-3
390
14
0
LAYER
5
41a
100
AcDbSymbolTableRecord
100
AcDbLayerTableRecord
2
1-6
70
0
62
7
6
CONTINUOUS
370
-3
390
14
0
LAYER
5
41b
100
AcDbSymbolTableRecord
100
AcDbLayerTableRecord
2
1-7
70
0
62
7
6
CONTINUOUS
370
-3
390
14
0
LAYER
5
41c
100
AcDbSymbolTableRecord
100
AcDbLayerTableRecord
2
1-9寸法補助線
70
0
62
7
6
CONTINUOUS
370
-3
390
14
0
LAYER
5
41d
100
AcDbSymbolTableRecord
100
AcDbLayerTableRecord
2
1-A寸法
70
0
62
7
6
CONTINUOUS
370
-3
390
14
0
LAYER
5
41e
100
AcDbSymbolTableRecord
100
AcDbLayerTableRecord
2
E-0
70
0
62
7
6
CONTINUOUS
370
-3
390
14
0
LAYER
5
41f
100
AcDbSymbolTableRecord
100
AcDbLayerTableRecord
2
F-0
70
0
62
7
6
CONTINUOUS
370
-3
390
14
0
LAYER
5
420
100
AcDbSymbolTableRecord
100
AcDbLayerTableRecord
2
F-1
70
0
62
7
6
CONTINUOUS
370
-3
390
14
0
LAYER
5
421
100
AcDbSymbolTableRecord
100
AcDbLayerTableRecord
2
F-F_J_ADD
70
4
62
-7
6
CONTINUOUS
290
0
370
-3
390
14
0
ENDTAB
0
ENDSEC
0
SECTION
2
BLOCKS
0
BLOCK
5
422
100
AcDbEntity
67
1
8
0
100
AcDbBlockBegin
2
*MODEL_SPACE
70
0
10
0.0
20
0.0
30
0.0
3
*MODEL_SPACE
1

0
ENDBLK
5
423
100
AcDbEntity
8
0
100
AcDbBlockEnd
0
BLOCK
5
424
100
AcDbEntity
67
1
8
0
100
AcDbBlockBegin
2
*PAPER_SPACE
70
0
10
0.0
20
0.0
30
0.0
3
*PAPER_SPACE
1

0
ENDBLK
5
425
100
AcDbEntity
67
1
8
0
100
AcDbBlockEnd
0
BLOCK
5
426
100
AcDbEntity
8
0
100
AcDbBlockBegin
2
_JACCONVERT_
70
2
10
0.0
20
0.0
30
0.0
3
_JACCONVERT_
1
_JACCONVERT_
0
ATTDEF
5
427
100
AcDbEntity
8
0
62
0
100
AcDbText
10
0.0
20
0.0
30
0.0
40
1.0
1
User:4F08D0AE08F0D1097
100
AcDbAttributeDefinition
3

2
USER
70
8
0
ATTDEF
5
428
100
AcDbEntity
8
0
62
0
100
AcDbText
10
0.0
20
2.0
30
0.0
40
1.0
1
Date:21/05/15 12:26
100
AcDbAttributeDefinition
3

2
REVDATE
70
8
0
ATTDEF
5
429
100
AcDbEntity
8
0
62
0
100
AcDbText
10
0.0
20
4.0
30
0.0
40
1.0
1
File:SOU 吊戸棚 L=750.dxf
100
AcDbAttributeDefinition
3

2
FNAME
70
8
0
ATTDEF
5
42a
100
AcDbEntity
8
0
62
0
100
AcDbText
10
0.0
20
6.0
30
0.0
40
1.0
1
JacConvert Version3.13c copyright (c) 2001-2019 K.Nakahara
100
AcDbAttributeDefinition
3

2
VER
70
8
0
ENDBLK
5
42b
100
AcDbEntity
67
1
8
0
100
AcDbBlockEnd
0
BLOCK
5
42c
100
AcDbEntity
67
1
8
0
100
AcDbBlockBegin
2
33-108X-2__35_0
70
0
10
0.000000000000
20
0.000000000000
30
0.0
3
33-108X-2__35_0
1

0
ENDBLK
5
42d
100
AcDbEntity
67
1
8
0
100
AcDbBlockEnd
0
BLOCK
5
42e
100
AcDbEntity
67
1
8
0
100
AcDbBlockBegin
2
33-108X-2__36_1
70
0
10
0.000000000000
20
0.000000000000
30
0.0
3
33-108X-2__36_1
1

0
ENDBLK
5
42f
100
AcDbEntity
67
1
8
0
100
AcDbBlockEnd
0
BLOCK
5
430
100
AcDbEntity
67
1
8
0
100
AcDbBlockBegin
2
33-108X-2__37_2
70
0
10
0.000000000000
20
0.000000000000
30
0.0
3
33-108X-2__37_2
1

0
ENDBLK
5
431
100
AcDbEntity
67
1
8
0
100
AcDbBlockEnd
0
BLOCK
5
432
100
AcDbEntity
67
1
8
0
100
AcDbBlockBegin
2
33-108X-1__38_3
70
0
10
0.000000000000
20
0.000000000000
30
0.0
3
33-108X-1__38_3
1

0
ENDBLK
5
433
100
AcDbEntity
67
1
8
0
100
AcDbBlockEnd
0
BLOCK
5
434
100
AcDbEntity
67
1
8
0
100
AcDbBlockBegin
2
33-108AX__39_4
70
0
10
0.000000000000
20
0.000000000000
30
0.0
3
33-108AX__39_4
1

0
ENDBLK
5
435
100
AcDbEntity
67
1
8
0
100
AcDbBlockEnd
0
BLOCK
5
436
100
AcDbEntity
67
1
8
0
100
AcDbBlockBegin
2
33-108X-1__40_5
70
0
10
0.000000000000
20
0.000000000000
30
0.0
3
33-108X-1__40_5
1

0
ENDBLK
5
437
100
AcDbEntity
67
1
8
0
100
AcDbBlockEnd
0
BLOCK
5
438
100
AcDbEntity
67
1
8
0
100
AcDbBlockBegin
2
33-108X-2__41_6
70
0
10
0.000000000000
20
0.000000000000
30
0.0
3
33-108X-2__41_6
1

0
ENDBLK
5
439
100
AcDbEntity
67
1
8
0
100
AcDbBlockEnd
0
BLOCK
5
43a
100
AcDbEntity
67
1
8
0
100
AcDbBlockBegin
2
33-108AX__42_7
70
0
10
0.000000000000
20
0.000000000000
30
0.0
3
33-108AX__42_7
1

0
ENDBLK
5
43b
100
AcDbEntity
67
1
8
0
100
AcDbBlockEnd
0
BLOCK
5
43c
100
AcDbEntity
67
1
8
0
100
AcDbBlockBegin
2
87-63_8
70
0
10
0.000000000000
20
0.000000000000
30
0.0
3
87-63_8
1

0
ENDBLK
5
43d
100
AcDbEntity
67
1
8
0
100
AcDbBlockEnd
0
ENDSEC
0
SECTION
2
ENTITIES
0
LINE
5
43e
100
AcDbEntity
8
F-F_J_ADD
6
HIDDEN
62
253
100
AcDbLine
10
1671.588920578802
20
2455.646925785541
30
0.0
11
1107.970159669964
21
2455.646925785541
31
0.0
0
POLYLINE
5
43f
100
AcDbEntity
  8
1-A寸法
6
CONTINUOUS
62
3
100
AcDb2dPolyline
66
1
10
0
20
0
70
1
40
4.000
41
4.000
0
VERTEX
5
440
100
AcDbEntity
  8
1-A寸法
6
CONTINUOUS
62
3
100
AcDbVertex
100
AcDb2dVertex
10
3682.865
20
764.152
30
0.0
42
1.000
0
VERTEX
5
441
100
AcDbEntity
  8
1-A寸法
6
CONTINUOUS
62
3
100
AcDbVertex
100
AcDb2dVertex
10
3686.865
20
764.152
30
0.0
42
1.000
0
SEQEND
5
442
100
AcDbEntity
  8
1-A寸法
0
POLYLINE
5
443
100
AcDbEntity
  8
1-A寸法
6
CONTINUOUS
62
3
100
AcDb2dPolyline
66
1
10
0
20
0
70
1
40
4.000
41
4.000
0
VERTEX
5
444
100
AcDbEntity
  8
1-A寸法
6
CONTINUOUS
62
3
100
AcDbVertex
100
AcDb2dVertex
10
3682.865
20
784.152
30
0.0
42
1.000
0
VERTEX
5
445
100
AcDbEntity
  8
1-A寸法
6
CONTINUOUS
62
3
100
AcDbVertex
100
AcDb2dVertex
10
3686.865
20
784.152
30
0.0
42
1.000
0
SEQEND
5
446
100
AcDbEntity
  8
1-A寸法
0
LINE
5
447
100
AcDbEntity
8
1-A寸法
6
CONTINUOUS
62
4
100
AcDbLine
10
3694.864551083591
20
764.152098016629
30
0.0
11
3634.864551083591
21
764.152098016629
31
0.0
0
LINE
5
448
100
AcDbEntity
8
1-A寸法
6
CONTINUOUS
62
4
100
AcDbLine
10
3694.864551083591
20
784.152098016629
30
0.0
11
3634.864551083591
21
784.152098016629
31
0.0
0
POLYLINE
5
449
100
AcDbEntity
  8
1-A寸法
6
CONTINUOUS
62
3
100
AcDb2dPolyline
66
1
10
0
20
0
70
1
40
4.000
41
4.000
0
VERTEX
5
44a
100
AcDbEntity
  8
1-A寸法
6
CONTINUOUS
62
3
100
AcDbVertex
100
AcDb2dVertex
10
3682.865
20
1064.152
30
0.0
42
1.000
0
VERTEX
5
44b
100
AcDbEntity
  8
1-A寸法
6
CONTINUOUS
62
3
100
AcDbVertex
100
AcDb2dVertex
10
3686.865
20
1064.152
30
0.0
42
1.000
0
SEQEND
5
44c
100
AcDbEntity
  8
1-A寸法
0
LINE
5
44d
100
AcDbEntity
8
1-A寸法
6
CONTINUOUS
62
4
100
AcDbLine
10
3694.864551083591
20
1064.152098016629
30
0.0
11
3634.864551083591
21
1064.152098016629
31
0.0
0
LINE
5
44e
100
AcDbEntity
8
1-A寸法
6
CONTINUOUS
62
4
100
AcDbLine
10
3684.864551083591
20
784.152098016629
30
0.0
11
3684.864551083591
21
1064.152098016629
31
0.0
0
TEXT
5
44f
100
AcDbEntity
8
1-A寸法
62
4
370
-3
100
AcDbText
10
3674.492
20
892.452
30
0.0
40
29.453
41
0.541
50
90.000
1
２８０
72
1
11
3677.765
21
925.602
31
0.0
100
AcDbText
73
1
0
POLYLINE
5
450
100
AcDbEntity
  8
1-A寸法
6
CONTINUOUS
62
3
100
AcDb2dPolyline
66
1
10
0
20
0
70
1
40
4.000
41
4.000
0
VERTEX
5
451
100
AcDbEntity
  8
1-A寸法
6
CONTINUOUS
62
3
100
AcDbVertex
100
AcDb2dVertex
10
3682.865
20
1344.152
30
0.0
42
1.000
0
VERTEX
5
452
100
AcDbEntity
  8
1-A寸法
6
CONTINUOUS
62
3
100
AcDbVertex
100
AcDb2dVertex
10
3686.865
20
1344.152
30
0.0
42
1.000
0
SEQEND
5
453
100
AcDbEntity
  8
1-A寸法
0
LINE
5
454
100
AcDbEntity
8
1-A寸法
6
CONTINUOUS
62
4
100
AcDbLine
10
3694.864551083591
20
1344.152098016629
30
0.0
11
3634.864551083591
21
1344.152098016629
31
0.0
0
LINE
5
455
100
AcDbEntity
8
1-A寸法
6
CONTINUOUS
62
4
100
AcDbLine
10
3684.864551083591
20
1064.152098016629
30
0.0
11
3684.864551083591
21
1344.152098016629
31
0.0
0
TEXT
5
456
100
AcDbEntity
8
1-A寸法
62
4
370
-3
100
AcDbText
10
3674.492
20
1172.452
30
0.0
40
29.453
41
0.541
50
90.000
1
２８０
72
1
11
3677.765
21
1205.602
31
0.0
100
AcDbText
73
1
0
LINE
5
457
100
AcDbEntity
8
1-A寸法
6
CONTINUOUS
62
4
100
AcDbLine
10
3684.864551083591
20
764.152098016629
30
0.0
11
3684.864551083591
21
784.152098016629
31
0.0
0
TEXT
5
458
100
AcDbEntity
8
1-A寸法
62
4
370
-3
100
AcDbText
10
3674.976
20
707.012
30
0.0
40
29.453
41
0.541
50
90.000
1
２０
72
1
11
3678.249
21
729.112
31
0.0
100
AcDbText
73
1
0
LINE
5
459
100
AcDbEntity
8
F-0
6
CONTINUOUS
62
7
100
AcDbLine
10
635.163689145226
20
246.074774177672
30
0.0
11
2215.163689145226
21
246.074774177672
31
0.0
0
LINE
5
45a
100
AcDbEntity
8
F-0
6
CONTINUOUS
62
4
100
AcDbLine
10
2262.058492385456
20
166.074774177673
30
0.0
11
2280.754930021139
21
184.771211813355
31
0.0
0
LINE
5
45b
100
AcDbEntity
8
F-F_J_ADD
6
HIDDEN
62
253
100
AcDbLine
10
155.148689145226
20
126.074774177673
30
0.0
11
155.148689145226
21
91.074774177673
31
0.0
0
LINE
5
45c
100
AcDbEntity
8
F-F_J_ADD
6
HIDDEN
62
253
100
AcDbLine
10
185.148689145226
20
126.074774177673
30
0.0
11
185.148689145226
21
91.074774823678
31
0.0
0
LINE
5
45d
100
AcDbEntity
8
F-F_J_ADD
6
HIDDEN
62
253
100
AcDbLine
10
80.148689145226
20
81.074774177673
30
0.0
11
4150.148689145226
21
81.074774177673
31
0.0
0
LINE
5
45e
100
AcDbEntity
8
F-F_J_ADD
6
HIDDEN
62
253
100
AcDbLine
10
80.148689145226
20
2901.074774177673
30
0.0
11
80.148689145226
21
81.074774177673
31
0.0
0
LINE
5
45f
100
AcDbEntity
8
F-F_J_ADD
6
HIDDEN
62
253
100
AcDbLine
10
4150.148689145226
20
2901.074774177673
30
0.0
11
80.148689145226
21
2901.074774177673
31
0.0
0
LINE
5
460
100
AcDbEntity
8
F-F_J_ADD
6
HIDDEN
62
253
100
AcDbLine
10
4150.148689145226
20
81.074774177673
30
0.0
11
4150.148689145226
21
2901.074774177673
31
0.0
0
LINE
5
461
100
AcDbEntity
8
F-0
6
CONTINUOUS
62
7
100
AcDbLine
10
635.163689145226
20
146.074774177673
30
0.0
11
635.163689145226
21
246.074774177672
31
0.0
0
LINE
5
462
100
AcDbEntity
8
F-F_J_ADD
6
HIDDEN
62
253
100
AcDbLine
10
175.163689145226
20
146.074774177673
30
0.0
11
175.163689145226
21
246.074774177672
31
0.0
0
LINE
5
463
100
AcDbEntity
8
F-F_J_ADD
6
HIDDEN
62
253
100
AcDbLine
10
615.163689145226
20
146.074774177673
30
0.0
11
615.163689145226
21
246.074774177672
31
0.0
0
LINE
5
464
100
AcDbEntity
8
F-0
6
CONTINUOUS
62
7
100
AcDbLine
10
175.163689145226
20
146.074774177673
30
0.0
11
615.163689145226
21
146.074774177673
31
0.0
0
LINE
5
465
100
AcDbEntity
8
F-0
6
CONTINUOUS
62
7
100
AcDbLine
10
175.163689145226
20
246.074774177672
30
0.0
11
615.163689145226
21
246.074774177672
31
0.0
0
LINE
5
466
100
AcDbEntity
8
F-0
6
CONTINUOUS
62
7
100
AcDbLine
10
1425.163689145226
20
146.074774177673
30
0.0
11
1425.163689145226
21
246.074774177672
31
0.0
0
LINE
5
467
100
AcDbEntity
8
F-0
6
CONTINUOUS
62
7
100
AcDbLine
10
2215.163689145226
20
146.074774177673
30
0.0
11
2215.163689145226
21
246.074774177672
31
0.0
0
LINE
5
468
100
AcDbEntity
8
F-0
6
CONTINUOUS
62
7
100
AcDbLine
10
2225.163689145226
20
146.074774177673
30
0.0
11
2225.163689145226
21
246.074774177672
31
0.0
0
LINE
5
469
100
AcDbEntity
8
F-0
6
CONTINUOUS
62
7
100
AcDbLine
10
635.163689145226
20
146.074774177673
30
0.0
11
2215.163689145226
21
146.074774177673
31
0.0
0
LINE
5
46a
100
AcDbEntity
8
F-0
6
CONTINUOUS
62
7
100
AcDbLine
10
2715.163689145226
20
146.074774177673
30
0.0
11
2715.163689145226
21
246.074774177672
31
0.0
0
LINE
5
46b
100
AcDbEntity
8
F-0
6
CONTINUOUS
62
7
100
AcDbLine
10
2725.163689145226
20
146.074774177673
30
0.0
11
2725.163689145226
21
246.074774177672
31
0.0
0
LINE
5
46c
100
AcDbEntity
8
F-0
6
CONTINUOUS
62
7
100
AcDbLine
10
2225.163689145226
20
146.074774177673
30
0.0
11
2715.163689145226
21
146.074774177673
31
0.0
0
LINE
5
46d
100
AcDbEntity
8
F-0
6
CONTINUOUS
62
7
100
AcDbLine
10
2225.163689145226
20
246.074774177672
30
0.0
11
2715.163689145226
21
246.074774177672
31
0.0
0
LINE
5
46e
100
AcDbEntity
8
F-0
6
CONTINUOUS
62
7
100
AcDbLine
10
3025.163689145226
20
146.074774177673
30
0.0
11
3025.163689145226
21
246.074774177672
31
0.0
0
LINE
5
46f
100
AcDbEntity
8
F-0
6
CONTINUOUS
62
7
100
AcDbLine
10
3325.163689145226
20
146.074774177673
30
0.0
11
3325.163689145226
21
246.074774177672
31
0.0
0
LINE
5
470
100
AcDbEntity
8
F-0
6
CONTINUOUS
62
7
100
AcDbLine
10
3705.163689145226
20
146.074774177673
30
0.0
11
3705.163689145226
21
246.074774177672
31
0.0
0
POLYLINE
5
471
100
AcDbEntity
8
F-0
6
CONTINUOUS
62
  7
100
AcDb2dPolyline
66
1
10
0.0
20
0.0
30
0.0
70
0
0
VERTEX
5
472
100
AcDbEntity
8
F-0
6
CONTINUOUS
62
  7
100
AcDbVertex
100
AcDb2dVertex
10
2725.163689145226
20
146.074774177673
30
0.0
0
VERTEX
5
473
100
AcDbEntity
8
F-0
6
CONTINUOUS
62
  7
100
AcDbVertex
100
AcDb2dVertex
10
4115.163689145226
20
146.074774177673
30
0.0
0
VERTEX
5
474
100
AcDbEntity
8
F-0
6
CONTINUOUS
62
  7
100
AcDbVertex
100
AcDb2dVertex
10
4115.163689145226
20
246.074774177672
30
0.0
0
SEQEND
5
475
100
AcDbEntity
8
F-0
0
LINE
5
476
100
AcDbEntity
8
F-0
6
CONTINUOUS
62
7
100
AcDbLine
10
2725.163689145226
20
246.074774177672
30
0.0
11
4115.163689145226
21
246.074774177672
31
0.0
0
LINE
5
477
100
AcDbEntity
8
F-0
6
CONTINUOUS
62
16
100
AcDbLine
10
4135.163689145226
20
2886.074774177672
30
0.0
11
4135.163689145226
21
126.074774177673
31
0.0
0
LINE
5
478
100
AcDbEntity
8
F-0
6
CONTINUOUS
62
16
100
AcDbLine
10
155.163689145226
20
2886.074774177672
30
0.0
11
4135.163689145226
21
2886.074774177672
31
0.0
0
LINE
5
479
100
AcDbEntity
8
F-0
6
CONTINUOUS
62
16
100
AcDbLine
10
155.163689145226
20
126.074774177673
30
0.0
11
4135.163689145226
21
126.074774177673
31
0.0
0
LINE
5
47a
100
AcDbEntity
8
F-0
6
CONTINUOUS
62
16
100
AcDbLine
10
155.163689145226
20
126.074774177673
30
0.0
11
155.163689145226
21
2886.074774177672
31
0.0
0
POLYLINE
5
47b
100
AcDbEntity
8
F-0
6
CONTINUOUS
62
  3
100
AcDb2dPolyline
66
1
10
0.0
20
0.0
30
0.0
70
0
0
VERTEX
5
47c
100
AcDbEntity
8
F-0
6
CONTINUOUS
62
  3
100
AcDbVertex
100
AcDb2dVertex
10
2253.163689145226
20
166.074774177673
30
0.0
0
VERTEX
5
47d
100
AcDbEntity
8
F-0
6
CONTINUOUS
62
  3
100
AcDbVertex
100
AcDb2dVertex
10
2280.754930021139
20
166.074774177673
30
0.0
0
VERTEX
5
47e
100
AcDbEntity
8
F-0
6
CONTINUOUS
62
  3
100
AcDbVertex
100
AcDb2dVertex
10
2280.754930021139
20
191.914190236067
30
0.0
0
SEQEND
5
47f
100
AcDbEntity
8
F-0
0
LINE
5
480
100
AcDbEntity
8
F-0
6
CONTINUOUS
62
3
100
AcDbLine
10
2253.163689145226
20
226.074774177672
30
0.0
11
2313.163689145226
21
226.074774177672
31
0.0
0
LINE
5
481
100
AcDbEntity
8
F-0
6
CONTINUOUS
62
3
100
AcDbLine
10
2253.163689145226
20
166.074774177673
30
0.0
11
2253.163689145226
21
219.505431111979
31
0.0
0
LINE
5
482
100
AcDbEntity
8
F-0
6
CONTINUOUS
62
3
100
AcDbLine
10
2329.368068707270
20
200.235358119278
30
0.0
11
2346.010404473694
21
200.235358119278
31
0.0
0
LINE
5
483
100
AcDbEntity
8
F-0
6
CONTINUOUS
62
3
100
AcDbLine
10
2425.718433670774
20
226.074774177672
30
0.0
11
2441.484857028438
21
226.074774177672
31
0.0
0
LINE
5
484
100
AcDbEntity
8
F-0
6
CONTINUOUS
62
3
100
AcDbLine
10
2319.733032210920
20
226.074774177672
30
0.0
11
2319.733032210920
21
214.687912863804
31
0.0
0
LINE
5
485
100
AcDbEntity
8
F-0
6
CONTINUOUS
62
3
100
AcDbLine
10
2319.733032210920
20
226.074774177672
30
0.0
11
2378.857119802161
21
226.074774177672
31
0.0
0
LINE
5
486
100
AcDbEntity
8
F-0
6
CONTINUOUS
62
3
100
AcDbLine
10
2343.382667247416
20
166.074774177673
30
0.0
11
2329.368068707270
21
200.235358119278
31
0.0
0
LINE
5
487
100
AcDbEntity
8
F-0
6
CONTINUOUS
62
3
100
AcDbLine
10
2360.025003013840
20
214.687912863804
30
0.0
11
2319.733032210920
21
214.687912863804
31
0.0
0
ARC
5
488
100
AcDbEntity
8
F-0
6
CONTINUOUS
62
3
100
AcDbCircle
10
2360.025003013840
20
213.374044250665
30
0.0
40
1.313868613139
100
AcDbArc
50
0.000000000000
51
90.000000000000
0
LINE
5
489
100
AcDbEntity
8
F-0
6
CONTINUOUS
62
3
100
AcDbLine
10
2361.338871626978
20
193.666015053585
30
0.0
11
2361.338871626978
21
213.374044250665
31
0.0
0
ARC
5
48a
100
AcDbEntity
8
F-0
6
CONTINUOUS
62
3
100
AcDbCircle
10
2359.149090605080
20
193.666015053585
30
0.0
40
2.189781021898
100
AcDbArc
50
270.000000000000
51
360.000000000000
0
LINE
5
48b
100
AcDbEntity
8
F-0
6
CONTINUOUS
62
3
100
AcDbLine
10
2346.010404473694
20
200.235358119278
30
0.0
11
2349.603891277983
21
191.476234031687
31
0.0
0
LINE
5
48c
100
AcDbEntity
8
F-0
6
CONTINUOUS
62
3
100
AcDbLine
10
2359.149090605080
20
191.476234031687
30
0.0
11
2349.603891277983
21
191.476234031687
31
0.0
0
ARC
5
48d
100
AcDbEntity
8
F-0
6
CONTINUOUS
62
3
100
AcDbCircle
10
2355.838854297723
20
177.899591695921
30
0.0
40
1.313868613139
100
AcDbArc
50
90.000000000000
51
201.221245047947
0
LINE
5
48e
100
AcDbEntity
8
F-0
6
CONTINUOUS
62
3
100
AcDbLine
10
2354.614079577501
20
177.424010349255
30
0.0
11
2359.021000240536
21
166.074774177673
31
0.0
0
LINE
5
48f
100
AcDbEntity
8
F-0
6
CONTINUOUS
62
3
100
AcDbLine
10
2343.382667247416
20
166.074774177673
30
0.0
11
2359.021000240536
21
166.074774177673
31
0.0
0
LINE
5
490
100
AcDbEntity
8
F-0
6
CONTINUOUS
62
3
100
AcDbLine
10
2378.857119802161
20
185.344847170373
30
0.0
11
2378.857119802161
21
226.074774177672
31
0.0
0
LINE
5
491
100
AcDbEntity
8
F-0
6
CONTINUOUS
62
3
100
AcDbLine
10
2372.725732940847
20
179.213460309059
30
0.0
11
2355.838854297723
21
179.213460309059
31
0.0
0
ARC
5
492
100
AcDbEntity
8
F-0
6
CONTINUOUS
62
3
100
AcDbCircle
10
2372.725732940847
20
185.344847170373
30
0.0
40
6.131386861314
100
AcDbArc
50
270.000000000000
51
360.000000000000
0
LINE
5
493
100
AcDbEntity
8
F-0
6
CONTINUOUS
62
3
100
AcDbLine
10
2383.674638050336
20
194.979883666724
30
0.0
11
2405.894036432778
21
194.979883666724
31
0.0
0
LINE
5
494
100
AcDbEntity
8
F-0
6
CONTINUOUS
62
3
100
AcDbLine
10
2383.674638050336
20
208.118569798110
30
0.0
11
2383.674638050336
21
194.979883666724
31
0.0
0
POLYLINE
5
495
100
AcDbEntity
8
F-0
6
CONTINUOUS
62
  3
100
AcDb2dPolyline
66
1
10
0.0
20
0.0
30
0.0
70
0
0
VERTEX
5
496
100
AcDbEntity
8
F-0
6
CONTINUOUS
62
  3
100
AcDbVertex
100
AcDb2dVertex
10
2406.010404473694
20
194.979883666724
30
0.0
0
VERTEX
5
497
100
AcDbEntity
8
F-0
6
CONTINUOUS
62
  3
100
AcDbVertex
100
AcDb2dVertex
10
2406.010404473694
20
166.074774177673
30
0.0
0
VERTEX
5
498
100
AcDbEntity
8
F-0
6
CONTINUOUS
62
  3
100
AcDbVertex
100
AcDb2dVertex
10
2422.652740240117
20
166.074774177673
30
0.0
0
VERTEX
5
499
100
AcDbEntity
8
F-0
6
CONTINUOUS
62
  3
100
AcDbVertex
100
AcDb2dVertex
10
2422.652740240117
20
194.979883666724
30
0.0
0
SEQEND
5
49a
100
AcDbEntity
8
F-0
0
LINE
5
49b
100
AcDbEntity
8
F-0
6
CONTINUOUS
62
3
100
AcDbLine
10
2425.718433670774
20
211.184263228767
30
0.0
11
2425.718433670774
21
226.074774177672
31
0.0
0
LINE
5
49c
100
AcDbEntity
8
F-0
6
CONTINUOUS
62
3
100
AcDbLine
10
2422.652740240117
20
208.118569798110
30
0.0
11
2383.674638050336
21
208.118569798110
31
0.0
0
ARC
5
49d
100
AcDbEntity
8
F-0
6
CONTINUOUS
62
3
100
AcDbCircle
10
2422.652740240117
20
211.184263228767
30
0.0
40
3.065693430657
100
AcDbArc
50
270.000000000000
51
360.000000000000
0
LINE
5
49e
100
AcDbEntity
8
F-0
6
CONTINUOUS
62
3
100
AcDbLine
10
2441.484857028438
20
201.111270528037
30
0.0
11
2441.484857028438
21
226.074774177672
31
0.0
0
LINE
5
49f
100
AcDbEntity
8
F-0
6
CONTINUOUS
62
3
100
AcDbLine
10
2435.353470167124
20
194.979883666724
30
0.0
11
2422.652740240117
21
194.979883666724
31
0.0
0
ARC
5
4a0
100
AcDbEntity
8
F-0
6
CONTINUOUS
62
3
100
AcDbCircle
10
2435.353470167124
20
201.111270528037
30
0.0
40
6.131386861314
100
AcDbArc
50
270.000000000000
51
360.000000000000
0
POLYLINE
5
4a1
100
AcDbEntity
8
F-0
6
CONTINUOUS
62
  3
100
AcDb2dPolyline
66
1
10
0.0
20
0.0
30
0.0
70
0
0
VERTEX
5
4a2
100
AcDbEntity
8
F-0
6
CONTINUOUS
62
  3
100
AcDbVertex
100
AcDb2dVertex
10
2447.178287685372
20
201.111270528037
30
0.0
0
VERTEX
5
4a3
100
AcDbEntity
8
F-0
6
CONTINUOUS
62
  3
100
AcDbVertex
100
AcDb2dVertex
10
2447.178287685372
20
213.374044250665
30
0.0
0
VERTEX
5
4a4
100
AcDbEntity
8
F-0
6
CONTINUOUS
62
  3
100
AcDbVertex
100
AcDb2dVertex
10
2453.747630751066
20
213.374044250665
30
0.0
0
SEQEND
5
4a5
100
AcDbEntity
8
F-0
0
LINE
5
4a6
100
AcDbEntity
8
F-0
6
CONTINUOUS
62
3
100
AcDbLine
10
2469.076097904350
20
213.374044250665
30
0.0
11
2504.988506663474
21
213.374044250665
31
0.0
0
POLYLINE
5
4a7
100
AcDbEntity
8
F-0
6
CONTINUOUS
62
  3
100
AcDb2dPolyline
66
1
10
0.0
20
0.0
30
0.0
70
0
0
VERTEX
5
4a8
100
AcDbEntity
8
F-0
6
CONTINUOUS
62
  3
100
AcDbVertex
100
AcDb2dVertex
10
2453.747630751066
20
226.074774177672
30
0.0
0
VERTEX
5
4a9
100
AcDbEntity
8
F-0
6
CONTINUOUS
62
  3
100
AcDbVertex
100
AcDb2dVertex
10
2469.076097904350
20
226.074774177672
30
0.0
0
VERTEX
5
4aa
100
AcDbEntity
8
F-0
6
CONTINUOUS
62
  3
100
AcDbVertex
100
AcDb2dVertex
10
2469.076097904350
20
213.374044250665
30
0.0
0
SEQEND
5
4ab
100
AcDbEntity
8
F-0
0
LINE
5
4ac
100
AcDbEntity
8
F-0
6
CONTINUOUS
62
3
100
AcDbLine
10
2453.747630751066
20
226.074774177672
30
0.0
11
2453.747630751066
21
213.374044250665
31
0.0
0
LINE
5
4ad
100
AcDbEntity
8
F-0
6
CONTINUOUS
62
3
100
AcDbLine
10
2447.178287685372
20
201.111270528037
30
0.0
11
2453.747630751066
21
201.111270528037
31
0.0
0
LINE
5
4ae
100
AcDbEntity
8
F-0
6
CONTINUOUS
62
3
100
AcDbLine
10
2477.835221991942
20
195.417839871103
30
0.0
11
2477.835221991942
21
184.906890965993
31
0.0
0
POLYLINE
5
4af
100
AcDbEntity
8
F-0
6
CONTINUOUS
62
  3
100
AcDb2dPolyline
66
1
10
0.0
20
0.0
30
0.0
70
0
0
VERTEX
5
4b0
100
AcDbEntity
8
F-0
6
CONTINUOUS
62
  3
100
AcDbVertex
100
AcDb2dVertex
10
2511.995805933547
20
213.374044250665
30
0.0
0
VERTEX
5
4b1
100
AcDbEntity
8
F-0
6
CONTINUOUS
62
  3
100
AcDbVertex
100
AcDb2dVertex
10
2522.506754838657
20
213.374044250665
30
0.0
0
VERTEX
5
4b2
100
AcDbEntity
8
F-0
6
CONTINUOUS
62
  3
100
AcDbVertex
100
AcDb2dVertex
10
2522.506754838657
20
189.724409214169
30
0.0
0
VERTEX
5
4b3
100
AcDbEntity
8
F-0
6
CONTINUOUS
62
  3
100
AcDbVertex
100
AcDb2dVertex
10
2511.995805933547
20
189.724409214169
30
0.0
0
VERTEX
5
4b4
100
AcDbEntity
8
F-0
6
CONTINUOUS
62
  3
100
AcDbVertex
100
AcDb2dVertex
10
2511.995805933547
20
213.374044250665
30
0.0
0
SEQEND
5
4b5
100
AcDbEntity
8
F-0
0
POLYLINE
5
4b6
100
AcDbEntity
8
F-0
6
CONTINUOUS
62
  3
100
AcDb2dPolyline
66
1
10
0.0
20
0.0
30
0.0
70
0
0
VERTEX
5
4b7
100
AcDbEntity
8
F-0
6
CONTINUOUS
62
  3
100
AcDbVertex
100
AcDb2dVertex
10
2525.572448269314
20
189.724409214169
30
0.0
0
VERTEX
5
4b8
100
AcDbEntity
8
F-0
6
CONTINUOUS
62
  3
100
AcDbVertex
100
AcDb2dVertex
10
2536.521353378803
20
189.724409214169
30
0.0
0
VERTEX
5
4b9
100
AcDbEntity
8
F-0
6
CONTINUOUS
62
  3
100
AcDbVertex
100
AcDb2dVertex
10
2536.521353378803
20
213.374044250665
30
0.0
0
VERTEX
5
4ba
100
AcDbEntity
8
F-0
6
CONTINUOUS
62
  3
100
AcDbVertex
100
AcDb2dVertex
10
2525.572448269314
20
213.374044250665
30
0.0
0
VERTEX
5
4bb
100
AcDbEntity
8
F-0
6
CONTINUOUS
62
  3
100
AcDbVertex
100
AcDb2dVertex
10
2525.572448269314
20
189.724409214169
30
0.0
0
SEQEND
5
4bc
100
AcDbEntity
8
F-0
0
LINE
5
4bd
100
AcDbEntity
8
F-0
6
CONTINUOUS
62
3
100
AcDbLine
10
2613.601645349606
20
201.111270528037
30
0.0
11
2621.766400302682
21
213.812000455044
31
0.0
0
LINE
5
4be
100
AcDbEntity
8
F-0
6
CONTINUOUS
62
3
100
AcDbLine
10
2581.192886225518
20
213.812000455044
30
0.0
11
2621.766400302682
21
213.812000455044
31
0.0
0
LINE
5
4bf
100
AcDbEntity
8
F-0
6
CONTINUOUS
62
3
100
AcDbLine
10
2581.192886225518
20
226.074774177672
30
0.0
11
2581.192886225518
21
213.812000455044
31
0.0
0
LINE
5
4c0
100
AcDbEntity
8
F-0
6
CONTINUOUS
62
3
100
AcDbLine
10
2563.674638050336
20
226.074774177672
30
0.0
11
2581.192886225518
21
226.074774177672
31
0.0
0
LINE
5
4c1
100
AcDbEntity
8
F-0
6
CONTINUOUS
62
3
100
AcDbLine
10
2581.192886225518
20
201.111270528037
30
0.0
11
2613.601645349606
21
201.111270528037
31
0.0
0
LINE
5
4c2
100
AcDbEntity
8
F-0
6
CONTINUOUS
62
3
100
AcDbLine
10
2563.674638050336
20
226.074774177672
30
0.0
11
2563.674638050336
21
166.074774177673
31
0.0
0
LINE
5
4c3
100
AcDbEntity
8
F-0
6
CONTINUOUS
62
3
100
AcDbLine
10
2581.192886225518
20
166.074774177673
30
0.0
11
2563.674638050336
21
166.074774177673
31
0.0
0
LINE
5
4c4
100
AcDbEntity
8
F-0
6
CONTINUOUS
62
3
100
AcDbLine
10
2581.192886225518
20
166.074774177673
30
0.0
11
2581.192886225518
21
201.111270528037
31
0.0
0
LINE
5
4c5
100
AcDbEntity
8
F-0
6
CONTINUOUS
62
3
100
AcDbLine
10
2469.076097904350
20
201.111270528037
30
0.0
11
2490.535951918949
21
201.111270528037
31
0.0
0
LINE
5
4c6
100
AcDbEntity
8
F-0
6
CONTINUOUS
62
3
100
AcDbLine
10
2504.988506663474
20
166.074774177673
30
0.0
11
2504.988506663474
21
178.775504104680
31
0.0
0
LINE
5
4c7
100
AcDbEntity
8
F-0
6
CONTINUOUS
62
3
100
AcDbLine
10
2511.557849729168
20
178.337547900300
30
0.0
11
2511.557849729168
21
166.074774177673
31
0.0
0
LINE
5
4c8
100
AcDbEntity
8
F-0
6
CONTINUOUS
62
3
100
AcDbLine
10
2453.747630751066
20
171.330248630227
30
0.0
11
2453.747630751066
21
201.111270528037
31
0.0
0
LINE
5
4c9
100
AcDbEntity
8
F-0
6
CONTINUOUS
62
3
100
AcDbLine
10
2459.003105203620
20
166.074774177673
30
0.0
11
2504.988506663474
21
166.074774177673
31
0.0
0
ARC
5
4ca
100
AcDbEntity
8
F-0
6
CONTINUOUS
62
3
100
AcDbCircle
10
2459.003105203620
20
171.330248630227
30
0.0
40
5.255474452555
100
AcDbArc
50
180.000000000000
51
270.000000000000
0
LINE
5
4cb
100
AcDbEntity
8
F-0
6
CONTINUOUS
62
3
100
AcDbLine
10
2473.017703743767
20
178.775504104680
30
0.0
11
2504.988506663474
21
178.775504104680
31
0.0
0
ELLIPSE
  5
4cc
100
AcDbEntity
8
F-0
6
CONTINUOUS
62
3
100
AcDbEllipse
10
2473.017703743767
20
183.593022352855
30
0.0
11
0.000000000000
21
4.817518248175
31
0.0
210
0.0
220
0.0
230
1.0
40
0.818181818182
41
1.570796326795
42
3.141592653590
0
LINE
5
4cd
100
AcDbEntity
8
F-0
6
CONTINUOUS
62
3
100
AcDbLine
10
2469.076097904350
20
183.593022352855
30
0.0
11
2469.076097904350
21
201.111270528037
31
0.0
0
LINE
5
4ce
100
AcDbEntity
8
F-0
6
CONTINUOUS
62
3
100
AcDbLine
10
2490.535951918949
20
199.797401914899
30
0.0
11
2490.535951918949
21
201.111270528037
31
0.0
0
LINE
5
4cf
100
AcDbEntity
8
F-0
6
CONTINUOUS
62
3
100
AcDbLine
10
2486.156389875153
20
195.417839871103
30
0.0
11
2477.835221991942
21
195.417839871103
31
0.0
0
ARC
5
4d0
100
AcDbEntity
8
F-0
6
CONTINUOUS
62
3
100
AcDbCircle
10
2486.156389875153
20
199.797401914899
30
0.0
40
4.379562043796
100
AcDbArc
50
270.000000000000
51
360.000000000000
0
LINE
5
4d1
100
AcDbEntity
8
F-0
6
CONTINUOUS
62
3
100
AcDbLine
10
2504.988506663474
20
190.600321622928
30
0.0
11
2504.988506663474
21
213.374044250665
31
0.0
0
LINE
5
4d2
100
AcDbEntity
8
F-0
6
CONTINUOUS
62
3
100
AcDbLine
10
2499.295076006540
20
184.906890965993
30
0.0
11
2477.835221991942
21
184.906890965993
31
0.0
0
ARC
5
4d3
100
AcDbEntity
8
F-0
6
CONTINUOUS
62
3
100
AcDbCircle
10
2499.295076006540
20
190.600321622928
30
0.0
40
5.693430656934
100
AcDbArc
50
270.000000000000
51
360.000000000000
0
LINE
5
4d4
100
AcDbEntity
8
F-0
6
CONTINUOUS
62
3
100
AcDbLine
10
2551.849820532088
20
166.074774177673
30
0.0
11
2511.557849729168
21
166.074774177673
31
0.0
0
ARC
5
4d5
100
AcDbEntity
8
F-0
6
CONTINUOUS
62
3
100
AcDbCircle
10
2551.849820532088
20
171.768204834607
30
0.0
40
5.693430656934
100
AcDbArc
50
270.000000000000
51
360.000000000000
0
LINE
5
4d6
100
AcDbEntity
8
F-0
6
CONTINUOUS
62
3
100
AcDbLine
10
2537.397265787562
20
178.337547900300
30
0.0
11
2511.557849729168
21
178.337547900300
31
0.0
0
ARC
5
4d7
100
AcDbEntity
8
F-0
6
CONTINUOUS
62
3
100
AcDbCircle
10
2537.397265787562
20
182.279153739716
30
0.0
40
3.941605839416
100
AcDbArc
50
270.000000000000
51
360.000000000000
0
POLYLINE
5
4d8
100
AcDbEntity
8
F-0
6
CONTINUOUS
62
  3
100
AcDb2dPolyline
66
1
10
0.0
20
0.0
30
0.0
70
0
0
VERTEX
5
4d9
100
AcDbEntity
8
F-0
6
CONTINUOUS
62
  3
100
AcDbVertex
100
AcDb2dVertex
10
2541.338871626978
20
182.279153739716
30
0.0
0
VERTEX
5
4da
100
AcDbEntity
8
F-0
6
CONTINUOUS
62
  3
100
AcDbVertex
100
AcDb2dVertex
10
2541.338871626978
20
214.687912863804
30
0.0
0
VERTEX
5
4db
100
AcDbEntity
8
F-0
6
CONTINUOUS
62
  3
100
AcDbVertex
100
AcDb2dVertex
10
2557.543251189022
20
214.687912863804
30
0.0
0
SEQEND
5
4dc
100
AcDbEntity
8
F-0
0
LINE
5
4dd
100
AcDbEntity
8
F-0
6
CONTINUOUS
62
3
100
AcDbLine
10
2557.543251189022
20
171.768204834607
30
0.0
11
2557.543251189022
21
214.687912863804
31
0.0
0
LINE
5
4de
100
AcDbEntity
8
F-0
6
CONTINUOUS
62
3
100
AcDbLine
10
2285.572448269314
20
166.074774177673
30
0.0
11
2285.572448269314
21
191.914190236067
31
0.0
0
POLYLINE
5
4df
100
AcDbEntity
8
F-0
6
CONTINUOUS
62
  3
100
AcDb2dPolyline
66
1
10
0.0
20
0.0
30
0.0
70
0
0
VERTEX
5
4e0
100
AcDbEntity
8
F-0
6
CONTINUOUS
62
  3
100
AcDbVertex
100
AcDb2dVertex
10
2285.572448269314
20
166.074774177673
30
0.0
0
VERTEX
5
4e1
100
AcDbEntity
8
F-0
6
CONTINUOUS
62
  3
100
AcDbVertex
100
AcDb2dVertex
10
2313.163689145226
20
166.074774177673
30
0.0
0
VERTEX
5
4e2
100
AcDbEntity
8
F-0
6
CONTINUOUS
62
  3
100
AcDbVertex
100
AcDb2dVertex
10
2313.163689145226
20
219.505431111979
30
0.0
0
SEQEND
5
4e3
100
AcDbEntity
8
F-0
0
LINE
5
4e4
100
AcDbEntity
8
F-F_J_ADD
6
HIDDEN
62
253
100
AcDbLine
10
635.163689145226
20
226.074774177672
30
0.0
11
2215.163689145226
21
226.074774177672
31
0.0
0
LINE
5
4e5
100
AcDbEntity
8
F-F_J_ADD
6
HIDDEN
62
253
100
AcDbLine
10
2725.163689145226
20
226.074774177672
30
0.0
11
4115.163689145226
21
226.074774177672
31
0.0
0
LINE
5
4e6
100
AcDbEntity
8
F-F_J_ADD
6
HIDDEN
62
253
100
AcDbLine
10
2745.163689145226
20
146.074774177673
30
0.0
11
2745.163689145226
21
246.074774177672
31
0.0
0
LINE
5
4e7
100
AcDbEntity
8
F-F_J_ADD
6
HIDDEN
62
253
100
AcDbLine
10
3045.163689145226
20
146.074774177673
30
0.0
11
3045.163689145226
21
246.074774177672
31
0.0
0
LINE
5
4e8
100
AcDbEntity
8
F-F_J_ADD
6
HIDDEN
62
253
100
AcDbLine
10
3345.163689145226
20
146.074774177673
30
0.0
11
3345.163689145226
21
246.074774177672
31
0.0
0
LINE
5
4e9
100
AcDbEntity
8
F-F_J_ADD
6
HIDDEN
62
253
100
AcDbLine
10
3725.163689145226
20
146.074774177673
30
0.0
11
3725.163689145226
21
246.074774177672
31
0.0
0
LINE
5
4ea
100
AcDbEntity
8
F-F_J_ADD
6
HIDDEN
62
253
100
AcDbLine
10
1450.163689145226
20
146.074774177673
30
0.0
11
1450.163689145226
21
246.074774177672
31
0.0
0
LINE
5
4eb
100
AcDbEntity
8
F-F_J_ADD
6
HIDDEN
62
253
100
AcDbLine
10
660.163689145226
20
146.074774177673
30
0.0
11
660.163689145226
21
246.074774177672
31
0.0
0
LINE
5
4ec
100
AcDbEntity
8
F-F_J_ADD
6
HIDDEN
62
253
100
AcDbLine
10
3665.163689145226
20
146.074774177673
30
0.0
11
3665.163689145226
21
246.074774177672
31
0.0
0
LINE
5
4ed
100
AcDbEntity
8
F-F_J_ADD
6
HIDDEN
62
253
100
AcDbLine
10
2725.163689145226
20
186.074774177673
30
0.0
11
4115.163689145226
21
186.074774177673
31
0.0
0
TEXT
5
4ee
100
AcDbEntity
8
F-0
62
7
370
-3
100
AcDbText
10
3346.164
20
217.412
30
0.0
40
21.038
41
0.582
50
0.000
1
ＣＨＥＣＫＥＤ
72
0
11
3345.164
21
222.075
31
0.0
100
AcDbText
73
2
0
TEXT
5
4ef
100
AcDbEntity
8
F-0
62
7
370
-3
100
AcDbText
10
3548.164
20
217.412
30
0.0
40
21.038
41
0.582
50
0.000
1
ＤＲＡＷＩＮＧ
72
2
11
3666.164
21
222.075
31
0.0
100
AcDbText
73
2
0
LINE
5
4f0
100
AcDbEntity
8
F-F_J_ADD
6
HIDDEN
62
253
100
AcDbLine
10
140.163689145226
20
91.074774177673
30
0.0
11
140.163689145226
21
2886.074774177672
31
0.0
0
LINE
5
4f1
100
AcDbEntity
8
F-0
6
CONTINUOUS
62
4
100
AcDbLine
10
2580.256543919401
20
166.074774177673
30
0.0
11
2581.192886225518
21
167.011116483789
31
0.0
0
LINE
5
4f2
100
AcDbEntity
8
F-0
6
CONTINUOUS
62
4
100
AcDbLine
10
2576.013903232274
20
166.074774177670
30
0.0
11
2581.192886225520
21
171.253757170917
31
0.0
0
LINE
5
4f3
100
AcDbEntity
8
F-0
6
CONTINUOUS
62
4
100
AcDbLine
10
2611.050399582638
20
201.111270528035
30
0.0
11
2618.193887730153
21
208.254758675550
31
0.0
0
LINE
5
4f4
100
AcDbEntity
8
F-0
6
CONTINUOUS
62
4
100
AcDbLine
10
2571.771262545157
20
166.074774177670
30
0.0
11
2581.192886225520
21
175.496397858033
31
0.0
0
LINE
5
4f5
100
AcDbEntity
8
F-0
6
CONTINUOUS
62
4
100
AcDbLine
10
2606.807758895522
20
201.111270528035
30
0.0
11
2619.508488822529
21
213.812000455042
31
0.0
0
LINE
5
4f6
100
AcDbEntity
8
F-0
6
CONTINUOUS
62
4
100
AcDbLine
10
2567.528621858041
20
166.074774177670
30
0.0
11
2581.192886225520
21
179.739038545149
31
0.0
0
LINE
5
4f7
100
AcDbEntity
8
F-0
6
CONTINUOUS
62
4
100
AcDbLine
10
2602.565118208406
20
201.111270528035
30
0.0
11
2615.265848135413
21
213.812000455042
31
0.0
0
LINE
5
4f8
100
AcDbEntity
8
F-0
6
CONTINUOUS
62
4
100
AcDbLine
10
2563.674638050338
20
166.463431057084
30
0.0
11
2581.192886225520
21
183.981679232266
31
0.0
0
LINE
5
4f9
100
AcDbEntity
8
F-0
6
CONTINUOUS
62
4
100
AcDbLine
10
2598.322477521290
20
201.111270528035
30
0.0
11
2611.023207448297
21
213.812000455042
31
0.0
0
LINE
5
4fa
100
AcDbEntity
8
F-0
6
CONTINUOUS
62
4
100
AcDbLine
10
2563.674638050336
20
170.706071744207
30
0.0
11
2581.192886225518
21
188.224319919389
31
0.0
0
LINE
5
4fb
100
AcDbEntity
8
F-0
6
CONTINUOUS
62
4
100
AcDbLine
10
2594.079836834167
20
201.111270528037
30
0.0
11
2606.780566761173
21
213.812000455044
31
0.0
0
LINE
5
4fc
100
AcDbEntity
8
F-0
6
CONTINUOUS
62
4
100
AcDbLine
10
2563.674638050336
20
174.948712431323
30
0.0
11
2581.192886225518
21
192.466960606505
31
0.0
0
LINE
5
4fd
100
AcDbEntity
8
F-0
6
CONTINUOUS
62
4
100
AcDbLine
10
2589.837196147050
20
201.111270528037
30
0.0
11
2602.537926074057
21
213.812000455044
31
0.0
0
LINE
5
4fe
100
AcDbEntity
8
F-0
6
CONTINUOUS
62
4
100
AcDbLine
10
2550.558059109569
20
166.074774177673
30
0.0
11
2557.543251189022
21
173.059966257126
31
0.0
0
LINE
5
4ff
100
AcDbEntity
8
F-0
6
CONTINUOUS
62
4
100
AcDbLine
10
2563.674638050336
20
179.191353118440
30
0.0
11
2581.192886225518
21
196.709601293622
31
0.0
0
LINE
5
500
100
AcDbEntity
8
F-0
6
CONTINUOUS
62
4
100
AcDbLine
10
2585.594555459934
20
201.111270528037
30
0.0
11
2598.295285386941
21
213.812000455044
31
0.0
0
LINE
5
501
100
AcDbEntity
8
F-0
6
CONTINUOUS
62
4
100
AcDbLine
10
2546.315418422441
20
166.074774177670
30
0.0
11
2557.543251189024
21
177.302606944254
31
0.0
0
LINE
5
502
100
AcDbEntity
8
F-0
6
CONTINUOUS
62
4
100
AcDbLine
10
2563.674638050338
20
183.433993805567
30
0.0
11
2581.192886225520
21
200.952241980749
31
0.0
0
LINE
5
503
100
AcDbEntity
8
F-0
6
CONTINUOUS
62
4
100
AcDbLine
10
2581.351914772806
20
201.111270528035
30
0.0
11
2594.052644699813
21
213.812000455042
31
0.0
0
LINE
5
504
100
AcDbEntity
8
F-0
6
CONTINUOUS
62
4
100
AcDbLine
10
2542.072777735325
20
166.074774177670
30
0.0
11
2557.543251189024
21
181.545247631370
31
0.0
0
LINE
5
505
100
AcDbEntity
8
F-0
6
CONTINUOUS
62
4
100
AcDbLine
10
2563.674638050338
20
187.676634492684
30
0.0
11
2589.810004012697
21
213.812000455042
31
0.0
0
LINE
5
506
100
AcDbEntity
8
F-0
6
CONTINUOUS
62
4
100
AcDbLine
10
2537.830137048208
20
166.074774177670
30
0.0
11
2557.543251189024
21
185.787888318486
31
0.0
0
LINE
5
507
100
AcDbEntity
8
F-0
6
CONTINUOUS
62
4
100
AcDbLine
10
2563.674638050338
20
191.919275179800
30
0.0
11
2585.567363325580
21
213.812000455042
31
0.0
0
LINE
5
508
100
AcDbEntity
8
F-0
6
CONTINUOUS
62
4
100
AcDbLine
10
2533.587496361085
20
166.074774177673
30
0.0
11
2557.543251189022
21
190.030529005609
31
0.0
0
LINE
5
509
100
AcDbEntity
8
F-0
6
CONTINUOUS
62
4
100
AcDbLine
10
2563.674638050336
20
196.161915866923
30
0.0
11
2581.324722638457
21
213.812000455044
31
0.0
0
LINE
5
50a
100
AcDbEntity
8
F-0
6
CONTINUOUS
62
4
100
AcDbLine
10
2529.344855673969
20
166.074774177673
30
0.0
11
2557.543251189022
21
194.273169692726
31
0.0
0
LINE
5
50b
100
AcDbEntity
8
F-0
6
CONTINUOUS
62
4
100
AcDbLine
10
2563.674638050336
20
200.404556554040
30
0.0
11
2581.192886225518
21
217.922804729222
31
0.0
0
LINE
5
50c
100
AcDbEntity
8
F-0
6
CONTINUOUS
62
4
100
AcDbLine
10
2525.102214986852
20
166.074774177673
30
0.0
11
2537.364988709480
21
178.337547900300
31
0.0
0
LINE
5
50d
100
AcDbEntity
8
F-0
6
CONTINUOUS
62
4
100
AcDbLine
10
2541.338871626978
20
182.311430817799
30
0.0
11
2557.543251189022
21
198.515810379842
31
0.0
0
LINE
5
50e
100
AcDbEntity
8
F-0
6
CONTINUOUS
62
4
100
AcDbLine
10
2563.674638050336
20
204.647197241156
30
0.0
11
2581.192886225518
21
222.165445416338
31
0.0
0
LINE
5
50f
100
AcDbEntity
8
F-0
6
CONTINUOUS
62
4
100
AcDbLine
10
2520.859574299725
20
166.074774177670
30
0.0
11
2533.122348022352
21
178.337547900298
31
0.0
0
LINE
5
510
100
AcDbEntity
8
F-0
6
CONTINUOUS
62
4
100
AcDbLine
10
2541.338871626981
20
186.554071504926
30
0.0
11
2557.543251189024
21
202.758451066970
31
0.0
0
LINE
5
511
100
AcDbEntity
8
F-0
6
CONTINUOUS
62
4
100
AcDbLine
10
2563.674638050338
20
208.889837928284
30
0.0
11
2580.859574299725
21
226.074774177670
31
0.0
0
LINE
5
512
100
AcDbEntity
8
F-0
6
CONTINUOUS
62
4
100
AcDbLine
10
2516.616933612608
20
166.074774177670
30
0.0
11
2528.879707335236
21
178.337547900298
31
0.0
0
LINE
5
513
100
AcDbEntity
8
F-0
6
CONTINUOUS
62
4
100
AcDbLine
10
2541.338871626981
20
190.796712192043
30
0.0
11
2557.543251189024
21
207.001091754086
31
0.0
0
LINE
5
514
100
AcDbEntity
8
F-0
6
CONTINUOUS
62
4
100
AcDbLine
10
2563.674638050338
20
213.132478615400
30
0.0
11
2576.616933612608
21
226.074774177670
31
0.0
0
LINE
5
515
100
AcDbEntity
8
F-0
6
CONTINUOUS
62
4
100
AcDbLine
10
2512.374292925492
20
166.074774177670
30
0.0
11
2524.637066648119
21
178.337547900298
31
0.0
0
LINE
5
516
100
AcDbEntity
8
F-0
6
CONTINUOUS
62
4
100
AcDbLine
10
2536.023927961988
20
189.724409214166
30
0.0
11
2536.521353378805
21
190.221834630984
31
0.0
0
LINE
5
517
100
AcDbEntity
8
F-0
6
CONTINUOUS
62
4
100
AcDbLine
10
2541.338871626981
20
195.039352879159
30
0.0
11
2557.543251189024
21
211.243732441203
31
0.0
0
LINE
5
518
100
AcDbEntity
8
F-0
6
CONTINUOUS
62
4
100
AcDbLine
10
2563.674638050338
20
217.375119302516
30
0.0
11
2572.374292925492
21
226.074774177670
31
0.0
0
LINE
5
519
100
AcDbEntity
8
F-0
6
CONTINUOUS
62
4
100
AcDbLine
10
2511.557849729168
20
169.500971668472
30
0.0
11
2520.394425960996
21
178.337547900300
31
0.0
0
LINE
5
51a
100
AcDbEntity
8
F-0
6
CONTINUOUS
62
4
100
AcDbLine
10
2531.781287274865
20
189.724409214169
30
0.0
11
2536.521353378803
21
194.464475318107
31
0.0
0
LINE
5
51b
100
AcDbEntity
8
F-0
6
CONTINUOUS
62
4
100
AcDbLine
10
2541.338871626978
20
199.281993566282
30
0.0
11
2556.744790924500
21
214.687912863804
31
0.0
0
LINE
5
51c
100
AcDbEntity
8
F-0
6
CONTINUOUS
62
4
100
AcDbLine
10
2563.674638050336
20
221.617759989640
30
0.0
11
2568.131652238369
21
226.074774177672
31
0.0
0
LINE
5
51d
100
AcDbEntity
8
F-0
6
CONTINUOUS
62
4
100
AcDbLine
10
2503.889011551252
20
166.074774177673
30
0.0
11
2504.988506663474
21
167.174269289895
31
0.0
0
LINE
5
51e
100
AcDbEntity
8
F-0
6
CONTINUOUS
62
4
100
AcDbLine
10
2511.557849729168
20
173.743612355588
30
0.0
11
2516.151785273880
21
178.337547900300
31
0.0
0
LINE
5
51f
100
AcDbEntity
8
F-0
6
CONTINUOUS
62
4
100
AcDbLine
10
2527.538646587749
20
189.724409214169
30
0.0
11
2536.521353378803
21
198.707116005223
31
0.0
0
LINE
5
520
100
AcDbEntity
8
F-0
6
CONTINUOUS
62
4
100
AcDbLine
10
2541.338871626978
20
203.524634253399
30
0.0
11
2552.502150237383
21
214.687912863804
31
0.0
0
LINE
5
521
100
AcDbEntity
8
F-0
6
CONTINUOUS
62
4
100
AcDbLine
10
2563.674638050336
20
225.860400676756
30
0.0
11
2563.889011551252
21
226.074774177672
31
0.0
0
LINE
5
522
100
AcDbEntity
8
F-0
6
CONTINUOUS
62
4
100
AcDbLine
10
2499.646370864136
20
166.074774177673
30
0.0
11
2504.988506663474
21
171.416909977011
31
0.0
0
LINE
5
523
100
AcDbEntity
8
F-0
6
CONTINUOUS
62
4
100
AcDbLine
10
2511.557849729168
20
177.986253042704
30
0.0
11
2511.909144586763
21
178.337547900300
31
0.0
0
LINE
5
524
100
AcDbEntity
8
F-0
6
CONTINUOUS
62
4
100
AcDbLine
10
2525.572448269314
20
192.000851582850
30
0.0
11
2536.521353378803
21
202.949756692340
31
0.0
0
LINE
5
525
100
AcDbEntity
8
F-0
6
CONTINUOUS
62
4
100
AcDbLine
10
2541.338871626978
20
207.767274940515
30
0.0
11
2548.259509550268
21
214.687912863804
31
0.0
0
LINE
5
526
100
AcDbEntity
8
F-0
6
CONTINUOUS
62
4
100
AcDbLine
10
2495.403730177008
20
166.074774177670
30
0.0
11
2504.988506663477
21
175.659550664139
31
0.0
0
LINE
5
527
100
AcDbEntity
8
F-0
6
CONTINUOUS
62
4
100
AcDbLine
10
2519.053365213505
20
189.724409214166
30
0.0
11
2522.506754838659
21
193.177798839321
31
0.0
0
LINE
5
528
100
AcDbEntity
8
F-0
6
CONTINUOUS
62
4
100
AcDbLine
10
2525.572448269316
20
196.243492269978
30
0.0
11
2536.521353378805
21
207.192397379467
31
0.0
0
LINE
5
529
100
AcDbEntity
8
F-0
6
CONTINUOUS
62
4
100
AcDbLine
10
2541.338871626981
20
212.009915627642
30
0.0
11
2544.016868863139
21
214.687912863801
31
0.0
0
LINE
5
52a
100
AcDbEntity
8
F-0
6
CONTINUOUS
62
4
100
AcDbLine
10
2491.161089489892
20
166.074774177670
30
0.0
11
2503.861819416899
21
178.775504104677
31
0.0
0
LINE
5
52b
100
AcDbEntity
8
F-0
6
CONTINUOUS
62
4
100
AcDbLine
10
2514.810724526388
20
189.724409214166
30
0.0
11
2522.506754838659
21
197.420439526438
31
0.0
0
LINE
5
52c
100
AcDbEntity
8
F-0
6
CONTINUOUS
62
4
100
AcDbLine
10
2525.572448269316
20
200.486132957094
30
0.0
11
2536.521353378805
21
211.435038066583
31
0.0
0
LINE
5
52d
100
AcDbEntity
8
F-0
6
CONTINUOUS
62
4
100
AcDbLine
10
2486.918448802775
20
166.074774177670
30
0.0
11
2499.619178729783
21
178.775504104677
31
0.0
0
LINE
5
52e
100
AcDbEntity
8
F-0
6
CONTINUOUS
62
4
100
AcDbLine
10
2511.995805933550
20
191.152131308445
30
0.0
11
2522.506754838659
21
201.663080213554
31
0.0
0
LINE
5
52f
100
AcDbEntity
8
F-0
6
CONTINUOUS
62
4
100
AcDbLine
10
2525.572448269316
20
204.728773644211
30
0.0
11
2534.217718875768
21
213.374044250663
31
0.0
0
LINE
5
530
100
AcDbEntity
8
F-0
6
CONTINUOUS
62
4
100
AcDbLine
10
2482.675808115652
20
166.074774177673
30
0.0
11
2495.376538042659
21
178.775504104680
31
0.0
0
LINE
5
531
100
AcDbEntity
8
F-0
6
CONTINUOUS
62
4
100
AcDbLine
10
2502.486466333632
20
185.885432395653
30
0.0
11
2504.009965233833
21
187.408931295854
31
0.0
0
LINE
5
532
100
AcDbEntity
8
F-0
6
CONTINUOUS
62
4
100
AcDbLine
10
2511.995805933547
20
195.394771995568
30
0.0
11
2522.506754838657
21
205.905720900677
31
0.0
0
LINE
5
533
100
AcDbEntity
8
F-0
6
CONTINUOUS
62
4
100
AcDbLine
10
2525.572448269314
20
208.971414331334
30
0.0
11
2529.975078188645
21
213.374044250665
31
0.0
0
LINE
5
534
100
AcDbEntity
8
F-0
6
CONTINUOUS
62
4
100
AcDbLine
10
2478.433167428536
20
166.074774177673
30
0.0
11
2491.133897355543
21
178.775504104680
31
0.0
0
LINE
5
535
100
AcDbEntity
8
F-0
6
CONTINUOUS
62
4
100
AcDbLine
10
2497.265284216857
20
184.906890965993
30
0.0
11
2504.988506663474
21
192.630113412611
31
0.0
0
LINE
5
536
100
AcDbEntity
8
F-0
6
CONTINUOUS
62
4
100
AcDbLine
10
2511.995805933547
20
199.637412682684
30
0.0
11
2522.506754838657
21
210.148361587794
31
0.0
0
LINE
5
537
100
AcDbEntity
8
F-0
6
CONTINUOUS
62
4
100
AcDbLine
10
2525.572448269314
20
213.214055018451
30
0.0
11
2525.732437501528
21
213.374044250665
31
0.0
0
LINE
5
538
100
AcDbEntity
8
F-0
6
CONTINUOUS
62
4
100
AcDbLine
10
2474.190526741420
20
166.074774177673
30
0.0
11
2486.891256668427
21
178.775504104680
31
0.0
0
LINE
5
539
100
AcDbEntity
8
F-0
6
CONTINUOUS
62
4
100
AcDbLine
10
2493.022643529740
20
184.906890965993
30
0.0
11
2504.988506663474
21
196.872754099727
31
0.0
0
LINE
5
53a
100
AcDbEntity
8
F-0
6
CONTINUOUS
62
4
100
AcDbLine
10
2511.995805933547
20
203.880053369800
30
0.0
11
2521.489796814412
21
213.374044250665
31
0.0
0
LINE
5
53b
100
AcDbEntity
8
F-0
6
CONTINUOUS
62
4
100
AcDbLine
10
2469.947886054303
20
166.074774177673
30
0.0
11
2482.648615981310
21
178.775504104680
31
0.0
0
LINE
5
53c
100
AcDbEntity
8
F-0
6
CONTINUOUS
62
4
100
AcDbLine
10
2488.780002842624
20
184.906890965993
30
0.0
11
2504.988506663474
21
201.115394786844
31
0.0
0
LINE
5
53d
100
AcDbEntity
8
F-0
6
CONTINUOUS
62
4
100
AcDbLine
10
2511.995805933547
20
208.122694056917
30
0.0
11
2517.247156127296
21
213.374044250665
31
0.0
0
LINE
5
53e
100
AcDbEntity
8
F-0
6
CONTINUOUS
62
4
100
AcDbLine
10
2465.705245367175
20
166.074774177670
30
0.0
11
2478.405975294183
21
178.775504104677
31
0.0
0
LINE
5
53f
100
AcDbEntity
8
F-0
6
CONTINUOUS
62
4
100
AcDbLine
10
2484.537362155496
20
184.906890965991
30
0.0
11
2504.988506663477
21
205.358035473971
31
0.0
0
LINE
5
540
100
AcDbEntity
8
F-0
6
CONTINUOUS
62
4
100
AcDbLine
10
2511.995805933550
20
212.365334744045
30
0.0
11
2513.004515440168
21
213.374044250663
31
0.0
0
LINE
5
541
100
AcDbEntity
8
F-0
6
CONTINUOUS
62
4
100
AcDbLine
10
2461.462604680059
20
166.074774177670
30
0.0
11
2474.163334607066
21
178.775504104677
31
0.0
0
LINE
5
542
100
AcDbEntity
8
F-0
6
CONTINUOUS
62
4
100
AcDbLine
10
2480.294721468380
20
184.906890965991
30
0.0
11
2504.988506663477
21
209.600676161088
31
0.0
0
LINE
5
543
100
AcDbEntity
8
F-0
6
CONTINUOUS
62
4
100
AcDbLine
10
2457.453586001931
20
166.308396186659
30
0.0
11
2470.775827436930
21
179.630637621658
31
0.0
0
LINE
5
544
100
AcDbEntity
8
F-0
6
CONTINUOUS
62
4
100
AcDbLine
10
2477.835221991944
20
186.690032176671
30
0.0
11
2486.583950215842
21
195.438760400569
31
0.0
0
LINE
5
545
100
AcDbEntity
8
F-0
6
CONTINUOUS
62
4
100
AcDbLine
10
2490.515031389505
20
199.369841574232
30
0.0
11
2504.519234065935
21
213.374044250663
31
0.0
0
LINE
5
546
100
AcDbEntity
8
F-0
6
CONTINUOUS
62
4
100
AcDbLine
10
2454.921782860578
20
168.019233732431
30
0.0
11
2469.217367867816
21
182.314818739669
31
0.0
0
LINE
5
547
100
AcDbEntity
8
F-0
6
CONTINUOUS
62
4
100
AcDbLine
10
2477.835221991942
20
190.932672863794
30
0.0
11
2482.320388999250
21
195.417839871103
31
0.0
0
LINE
5
548
100
AcDbEntity
8
F-0
6
CONTINUOUS
62
4
100
AcDbLine
10
2488.013819656184
20
201.111270528037
30
0.0
11
2500.276593378812
21
213.374044250665
31
0.0
0
LINE
5
549
100
AcDbEntity
8
F-0
6
CONTINUOUS
62
4
100
AcDbLine
10
2453.752985093174
20
171.093076652143
30
0.0
11
2469.076097904350
21
186.416189463320
31
0.0
0
LINE
5
54a
100
AcDbEntity
8
F-0
6
CONTINUOUS
62
4
100
AcDbLine
10
2477.835221991942
20
195.175313550911
30
0.0
11
2478.077748312134
21
195.417839871103
31
0.0
0
LINE
5
54b
100
AcDbEntity
8
F-0
6
CONTINUOUS
62
4
100
AcDbLine
10
2483.771178969068
20
201.111270528037
30
0.0
11
2496.033952691696
21
213.374044250665
31
0.0
0
LINE
5
54c
100
AcDbEntity
8
F-0
6
CONTINUOUS
62
4
100
AcDbLine
10
2453.747630751066
20
175.330362997152
30
0.0
11
2469.076097904350
21
190.658830150436
31
0.0
0
LINE
5
54d
100
AcDbEntity
8
F-0
6
CONTINUOUS
62
4
100
AcDbLine
10
2479.528538281952
20
201.111270528037
30
0.0
11
2491.791312004579
21
213.374044250665
31
0.0
0
LINE
5
54e
100
AcDbEntity
8
F-0
6
CONTINUOUS
62
4
100
AcDbLine
10
2453.747630751068
20
179.573003684279
30
0.0
11
2469.076097904353
21
194.901470837564
31
0.0
0
LINE
5
54f
100
AcDbEntity
8
F-0
6
CONTINUOUS
62
4
100
AcDbLine
10
2475.285897594824
20
201.111270528035
30
0.0
11
2487.548671317451
21
213.374044250663
31
0.0
0
LINE
5
550
100
AcDbEntity
8
F-0
6
CONTINUOUS
62
4
100
AcDbLine
10
2453.747630751068
20
183.815644371396
30
0.0
11
2469.076097904353
21
199.144111524680
31
0.0
0
LINE
5
551
100
AcDbEntity
8
F-0
6
CONTINUOUS
62
4
100
AcDbLine
10
2471.043256907708
20
201.111270528035
30
0.0
11
2483.306030630335
21
213.374044250663
31
0.0
0
LINE
5
552
100
AcDbEntity
8
F-0
6
CONTINUOUS
62
4
100
AcDbLine
10
2453.747630751068
20
188.058285058512
30
0.0
11
2479.063389943219
21
213.374044250663
31
0.0
0
LINE
5
553
100
AcDbEntity
8
F-0
6
CONTINUOUS
62
4
100
AcDbLine
10
2453.747630751066
20
192.300925745635
30
0.0
11
2474.820749256096
21
213.374044250665
31
0.0
0
LINE
5
554
100
AcDbEntity
8
F-0
6
CONTINUOUS
62
4
100
AcDbLine
10
2453.747630751066
20
196.543566432752
30
0.0
11
2470.578108568980
21
213.374044250665
31
0.0
0
LINE
5
555
100
AcDbEntity
8
F-0
6
CONTINUOUS
62
4
100
AcDbLine
10
2419.036197808870
20
166.074774177673
30
0.0
11
2422.652740240117
21
169.691316608919
31
0.0
0
LINE
5
556
100
AcDbEntity
8
F-0
6
CONTINUOUS
62
4
100
AcDbLine
10
2453.747630751066
20
200.786207119868
30
0.0
11
2469.076097904350
21
216.114674273152
31
0.0
0
LINE
5
557
100
AcDbEntity
8
F-0
6
CONTINUOUS
62
4
100
AcDbLine
10
2414.793557121743
20
166.074774177670
30
0.0
11
2422.652740240119
21
173.933957296047
31
0.0
0
LINE
5
558
100
AcDbEntity
8
F-0
6
CONTINUOUS
62
4
100
AcDbLine
10
2449.830053472108
20
201.111270528035
30
0.0
11
2469.076097904353
21
220.357314960280
31
0.0
0
LINE
5
559
100
AcDbEntity
8
F-0
6
CONTINUOUS
62
4
100
AcDbLine
10
2410.550916434626
20
166.074774177670
30
0.0
11
2422.652740240119
21
178.176597983163
31
0.0
0
LINE
5
55a
100
AcDbEntity
8
F-0
6
CONTINUOUS
62
4
100
AcDbLine
10
2447.178287685375
20
202.702145428418
30
0.0
11
2469.076097904353
21
224.599955647397
31
0.0
0
LINE
5
55b
100
AcDbEntity
8
F-0
6
CONTINUOUS
62
4
100
AcDbLine
10
2406.308275747510
20
166.074774177670
30
0.0
11
2422.652740240119
21
182.419238670279
31
0.0
0
LINE
5
55c
100
AcDbEntity
8
F-0
6
CONTINUOUS
62
4
100
AcDbLine
10
2435.213385236561
20
194.979883666721
30
0.0
11
2441.484857028440
21
201.251355458600
31
0.0
0
LINE
5
55d
100
AcDbEntity
8
F-0
6
CONTINUOUS
62
4
100
AcDbLine
10
2447.178287685375
20
206.944786115535
30
0.0
11
2453.607545820502
21
213.374044250663
31
0.0
0
LINE
5
55e
100
AcDbEntity
8
F-0
6
CONTINUOUS
62
4
100
AcDbLine
10
2453.747630751068
20
213.514129181228
30
0.0
11
2466.308275747510
21
226.074774177670
31
0.0
0
LINE
5
55f
100
AcDbEntity
8
F-0
6
CONTINUOUS
62
4
100
AcDbLine
10
2406.010404473693
20
170.019543590979
30
0.0
11
2422.652740240117
21
186.661879357403
31
0.0
0
LINE
5
560
100
AcDbEntity
8
F-0
6
CONTINUOUS
62
4
100
AcDbLine
10
2430.970744549438
20
194.979883666724
30
0.0
11
2441.484857028438
21
205.493996145723
31
0.0
0
LINE
5
561
100
AcDbEntity
8
F-0
6
CONTINUOUS
62
4
100
AcDbLine
10
2447.178287685372
20
211.187426802657
30
0.0
11
2449.364905133379
21
213.374044250665
31
0.0
0
LINE
5
562
100
AcDbEntity
8
F-0
6
CONTINUOUS
62
4
100
AcDbLine
10
2453.747630751066
20
217.756769868351
30
0.0
11
2462.065635060387
21
226.074774177672
31
0.0
0
LINE
5
563
100
AcDbEntity
8
F-0
6
CONTINUOUS
62
4
100
AcDbLine
10
2406.010404473694
20
174.262184278095
30
0.0
11
2422.652740240117
21
190.904520044519
31
0.0
0
LINE
5
564
100
AcDbEntity
8
F-0
6
CONTINUOUS
62
4
100
AcDbLine
10
2426.728103862321
20
194.979883666724
30
0.0
11
2441.484857028438
21
209.736636832840
31
0.0
0
LINE
5
565
100
AcDbEntity
8
F-0
6
CONTINUOUS
62
4
100
AcDbLine
10
2453.747630751066
20
221.999410555467
30
0.0
11
2457.822994373270
21
226.074774177672
31
0.0
0
LINE
5
566
100
AcDbEntity
8
F-0
6
CONTINUOUS
62
4
100
AcDbLine
10
2406.010404473694
20
178.504824965212
30
0.0
11
2441.484857028438
21
213.979277519956
31
0.0
0
LINE
5
567
100
AcDbEntity
8
F-0
6
CONTINUOUS
62
4
100
AcDbLine
10
2406.010404473695
20
182.747465652340
30
0.0
11
2441.484857028440
21
218.221918207084
31
0.0
0
LINE
5
568
100
AcDbEntity
8
F-0
6
CONTINUOUS
62
4
100
AcDbLine
10
2406.010404473695
20
186.990106339456
30
0.0
11
2441.484857028440
21
222.464558894200
31
0.0
0
LINE
5
569
100
AcDbEntity
8
F-0
6
CONTINUOUS
62
4
100
AcDbLine
10
2406.010404473696
20
191.232747026572
30
0.0
11
2422.906770100060
21
208.129112652936
31
0.0
0
LINE
5
56a
100
AcDbEntity
8
F-0
6
CONTINUOUS
62
4
100
AcDbLine
10
2425.707890815961
20
210.930233368837
30
0.0
11
2440.852431624794
21
226.074774177670
31
0.0
0
LINE
5
56b
100
AcDbEntity
8
F-0
6
CONTINUOUS
62
4
100
AcDbLine
10
2405.514900426729
20
194.979883666721
30
0.0
11
2418.653586558115
21
208.118569798108
31
0.0
0
LINE
5
56c
100
AcDbEntity
8
F-0
6
CONTINUOUS
62
4
100
AcDbLine
10
2425.718433670776
20
215.183416910769
30
0.0
11
2436.609790937677
21
226.074774177670
31
0.0
0
LINE
5
56d
100
AcDbEntity
8
F-0
6
CONTINUOUS
62
4
100
AcDbLine
10
2401.272259739605
20
194.979883666724
30
0.0
11
2414.410945870992
21
208.118569798110
31
0.0
0
LINE
5
56e
100
AcDbEntity
8
F-0
6
CONTINUOUS
62
4
100
AcDbLine
10
2425.718433670774
20
219.426057597892
30
0.0
11
2432.367150250554
21
226.074774177672
31
0.0
0
LINE
5
56f
100
AcDbEntity
8
F-0
6
CONTINUOUS
62
4
100
AcDbLine
10
2397.029619052489
20
194.979883666724
30
0.0
11
2410.168305183875
21
208.118569798110
31
0.0
0
LINE
5
570
100
AcDbEntity
8
F-0
6
CONTINUOUS
62
4
100
AcDbLine
10
2425.718433670773
20
223.668698285008
30
0.0
11
2428.124509563438
21
226.074774177672
31
0.0
0
LINE
5
571
100
AcDbEntity
8
F-0
6
CONTINUOUS
62
4
100
AcDbLine
10
2392.786978365372
20
194.979883666724
30
0.0
11
2405.925664496759
21
208.118569798110
31
0.0
0
LINE
5
572
100
AcDbEntity
8
F-0
6
CONTINUOUS
62
4
100
AcDbLine
10
2372.778138280505
20
179.213684268982
30
0.0
11
2378.856895842245
21
185.292441830721
31
0.0
0
LINE
5
573
100
AcDbEntity
8
F-0
6
CONTINUOUS
62
4
100
AcDbLine
10
2388.544337678245
20
194.979883666721
30
0.0
11
2401.683023809631
21
208.118569798108
31
0.0
0
LINE
5
574
100
AcDbEntity
8
F-0
6
CONTINUOUS
62
4
100
AcDbLine
10
2355.396587502077
20
166.074774177670
30
0.0
11
2358.007269572829
21
168.685456248422
31
0.0
0
LINE
5
575
100
AcDbEntity
8
F-0
6
CONTINUOUS
62
4
100
AcDbLine
10
2368.535273633464
20
179.213460309057
30
0.0
11
2378.857119802163
21
189.535306477756
31
0.0
0
LINE
5
576
100
AcDbEntity
8
F-0
6
CONTINUOUS
62
4
100
AcDbLine
10
2384.301696991129
20
194.979883666721
30
0.0
11
2397.440383122515
21
208.118569798108
31
0.0
0
LINE
5
577
100
AcDbEntity
8
F-0
6
CONTINUOUS
62
4
100
AcDbLine
10
2351.153946814961
20
166.074774177670
30
0.0
11
2356.820623545747
21
171.741450908456
31
0.0
0
LINE
5
578
100
AcDbEntity
8
F-0
6
CONTINUOUS
62
4
100
AcDbLine
10
2364.292632946348
20
179.213460309057
30
0.0
11
2378.857119802163
21
193.777947164872
31
0.0
0
LINE
5
579
100
AcDbEntity
8
F-0
6
CONTINUOUS
62
4
100
AcDbLine
10
2383.674638050338
20
198.595465413047
30
0.0
11
2393.197742435399
21
208.118569798108
31
0.0
0
LINE
5
57a
100
AcDbEntity
8
F-0
6
CONTINUOUS
62
4
100
AcDbLine
10
2346.911306127838
20
166.074774177673
30
0.0
11
2355.633977518660
21
174.797445568495
31
0.0
0
LINE
5
57b
100
AcDbEntity
8
F-0
6
CONTINUOUS
62
4
100
AcDbLine
10
2360.049992259224
20
179.213460309059
30
0.0
11
2378.857119802161
21
198.020587851996
31
0.0
0
LINE
5
57c
100
AcDbEntity
8
F-0
6
CONTINUOUS
62
4
100
AcDbLine
10
2383.674638050336
20
202.838106100171
30
0.0
11
2388.955101748275
21
208.118569798110
31
0.0
0
LINE
5
57d
100
AcDbEntity
8
F-0
6
CONTINUOUS
62
4
100
AcDbLine
10
2343.174957630923
20
166.581066367874
30
0.0
11
2354.525372750943
21
177.931481487894
31
0.0
0
LINE
5
57e
100
AcDbEntity
8
F-0
6
CONTINUOUS
62
4
100
AcDbLine
10
2355.806964505765
20
179.213073242717
30
0.0
11
2378.857119802161
21
202.263228539112
31
0.0
0
LINE
5
57f
100
AcDbEntity
8
F-0
6
CONTINUOUS
62
4
100
AcDbLine
10
2383.674638050336
20
207.080746787287
30
0.0
11
2384.712461061159
21
208.118569798110
31
0.0
0
LINE
5
580
100
AcDbEntity
8
F-0
6
CONTINUOUS
62
4
100
AcDbLine
10
2341.940734885580
20
169.589484309648
30
0.0
11
2378.857119802161
21
206.505869226228
31
0.0
0
LINE
5
581
100
AcDbEntity
8
F-0
6
CONTINUOUS
62
4
100
AcDbLine
10
2340.706512140236
20
172.597902251429
30
0.0
11
2359.640753138002
21
191.532143249195
31
0.0
0
LINE
5
582
100
AcDbEntity
8
F-0
6
CONTINUOUS
62
4
100
AcDbLine
10
2361.282962409475
20
193.174352520668
30
0.0
11
2378.857119802163
21
210.748509913355
31
0.0
0
LINE
5
583
100
AcDbEntity
8
F-0
6
CONTINUOUS
62
4
100
AcDbLine
10
2339.472289394892
20
175.606320193202
30
0.0
11
2355.342203233376
21
191.476234031685
31
0.0
0
LINE
5
584
100
AcDbEntity
8
F-0
6
CONTINUOUS
62
4
100
AcDbLine
10
2361.338871626980
20
197.472902425289
30
0.0
11
2378.857119802163
21
214.991150600472
31
0.0
0
LINE
5
585
100
AcDbEntity
8
F-0
6
CONTINUOUS
62
4
100
AcDbLine
10
2338.238066649549
20
178.614738134975
30
0.0
11
2351.099562546259
21
191.476234031685
31
0.0
0
LINE
5
586
100
AcDbEntity
8
F-0
6
CONTINUOUS
62
4
100
AcDbLine
10
2361.338871626980
20
201.715543112406
30
0.0
11
2378.857119802163
21
219.233791287588
31
0.0
0
LINE
5
587
100
AcDbEntity
8
F-0
6
CONTINUOUS
62
4
100
AcDbLine
10
2337.003843904203
20
181.623156076754
30
0.0
11
2348.804772901729
21
193.424085074280
31
0.0
0
LINE
5
588
100
AcDbEntity
8
F-0
6
CONTINUOUS
62
4
100
AcDbLine
10
2361.338871626978
20
205.958183799529
30
0.0
11
2378.857119802161
21
223.476431974711
31
0.0
0
LINE
5
589
100
AcDbEntity
8
F-0
6
CONTINUOUS
62
4
100
AcDbLine
10
2335.769621158860
20
184.631574018528
30
0.0
11
2347.570550156599
21
196.432503016267
31
0.0
0
LINE
5
58a
100
AcDbEntity
8
F-0
6
CONTINUOUS
62
4
100
AcDbLine
10
2361.338871626978
20
210.200824486645
30
0.0
11
2377.212821318005
21
226.074774177672
31
0.0
0
LINE
5
58b
100
AcDbEntity
8
F-0
6
CONTINUOUS
62
4
100
AcDbLine
10
2312.970180630889
20
166.074774177673
30
0.0
11
2313.163689145226
21
166.268282692010
31
0.0
0
LINE
5
58c
100
AcDbEntity
8
F-0
6
CONTINUOUS
62
4
100
AcDbLine
10
2334.535398413517
20
187.639991960301
30
0.0
11
2346.336327411470
21
199.440920958254
31
0.0
0
LINE
5
58d
100
AcDbEntity
8
F-0
6
CONTINUOUS
62
4
100
AcDbLine
10
2361.068197378495
20
214.172790925279
30
0.0
11
2372.970180630889
21
226.074774177672
31
0.0
0
LINE
5
58e
100
AcDbEntity
8
F-0
6
CONTINUOUS
62
4
100
AcDbLine
10
2308.727539943761
20
166.074774177670
30
0.0
11
2313.163689145229
21
170.510923379138
31
0.0
0
LINE
5
58f
100
AcDbEntity
8
F-0
6
CONTINUOUS
62
4
100
AcDbLine
10
2333.301175668173
20
190.648409902082
30
0.0
11
2342.888123885366
21
200.235358119276
31
0.0
0
LINE
5
590
100
AcDbEntity
8
F-0
6
CONTINUOUS
62
4
100
AcDbLine
10
2357.340678629892
20
214.687912863801
30
0.0
11
2368.727539943761
21
226.074774177670
31
0.0
0
LINE
5
591
100
AcDbEntity
8
F-0
6
CONTINUOUS
62
4
100
AcDbLine
10
2304.484899256644
20
166.074774177670
30
0.0
11
2313.163689145228
21
174.753564066254
31
0.0
0
LINE
5
592
100
AcDbEntity
8
F-0
6
CONTINUOUS
62
4
100
AcDbLine
10
2332.066952922829
20
193.656827843855
30
0.0
11
2338.645483198250
21
200.235358119276
31
0.0
0
LINE
5
593
100
AcDbEntity
8
F-0
6
CONTINUOUS
62
4
100
AcDbLine
10
2353.098037942776
20
214.687912863801
30
0.0
11
2364.484899256644
21
226.074774177670
31
0.0
0
LINE
5
594
100
AcDbEntity
8
F-0
6
CONTINUOUS
62
4
100
AcDbLine
10
2300.242258569528
20
166.074774177670
30
0.0
11
2313.163689145228
21
178.996204753370
31
0.0
0
LINE
5
595
100
AcDbEntity
8
F-0
6
CONTINUOUS
62
4
100
AcDbLine
10
2330.832730177487
20
196.665245785629
30
0.0
11
2334.402842511134
21
200.235358119276
31
0.0
0
LINE
5
596
100
AcDbEntity
8
F-0
6
CONTINUOUS
62
4
100
AcDbLine
10
2348.855397255659
20
214.687912863801
30
0.0
11
2360.242258569528
21
226.074774177670
31
0.0
0
LINE
5
597
100
AcDbEntity
8
F-0
6
CONTINUOUS
62
4
100
AcDbLine
10
2295.999617882412
20
166.074774177670
30
0.0
11
2313.163689145229
21
183.238845440487
31
0.0
0
LINE
5
598
100
AcDbEntity
8
F-0
6
CONTINUOUS
62
4
100
AcDbLine
10
2329.598507432143
20
199.673663727402
30
0.0
11
2330.160201824017
21
200.235358119276
31
0.0
0
LINE
5
599
100
AcDbEntity
8
F-0
6
CONTINUOUS
62
4
100
AcDbLine
10
2344.612756568543
20
214.687912863801
30
0.0
11
2355.999617882412
21
226.074774177670
31
0.0
0
LINE
5
59a
100
AcDbEntity
8
F-0
6
CONTINUOUS
62
4
100
AcDbLine
10
2291.756977195289
20
166.074774177673
30
0.0
11
2313.163689145226
21
187.481486127610
31
0.0
0
LINE
5
59b
100
AcDbEntity
8
F-0
6
CONTINUOUS
62
4
100
AcDbLine
10
2340.370115881420
20
214.687912863804
30
0.0
11
2351.756977195289
21
226.074774177672
31
0.0
0
LINE
5
59c
100
AcDbEntity
8
F-0
6
CONTINUOUS
62
4
100
AcDbLine
10
2287.514336508172
20
166.074774177673
30
0.0
11
2313.163689145226
21
191.724126814726
31
0.0
0
LINE
5
59d
100
AcDbEntity
8
F-0
6
CONTINUOUS
62
4
100
AcDbLine
10
2336.127475194303
20
214.687912863804
30
0.0
11
2347.514336508172
21
226.074774177672
31
0.0
0
LINE
5
59e
100
AcDbEntity
8
F-0
6
CONTINUOUS
62
4
100
AcDbLine
10
2285.572448269314
20
168.375526625930
30
0.0
11
2313.163689145226
21
195.966767501843
31
0.0
0
LINE
5
59f
100
AcDbEntity
8
F-0
6
CONTINUOUS
62
4
100
AcDbLine
10
2331.884834507187
20
214.687912863804
30
0.0
11
2343.271695821056
21
226.074774177672
31
0.0
0
LINE
5
5a0
100
AcDbEntity
8
F-0
6
CONTINUOUS
62
4
100
AcDbLine
10
2279.029055133928
20
166.074774177670
30
0.0
11
2280.754930021141
21
167.800649064883
31
0.0
0
LINE
5
5a1
100
AcDbEntity
8
F-0
6
CONTINUOUS
62
4
100
AcDbLine
10
2285.572448269316
20
172.618167313058
30
0.0
11
2313.163689145229
21
200.209408188970
31
0.0
0
LINE
5
5a2
100
AcDbEntity
8
F-0
6
CONTINUOUS
62
4
100
AcDbLine
10
2327.642193820059
20
214.687912863801
30
0.0
11
2339.029055133928
21
226.074774177670
31
0.0
0
LINE
5
5a3
100
AcDbEntity
8
F-0
6
CONTINUOUS
62
4
100
AcDbLine
10
2274.786414446812
20
166.074774177670
30
0.0
11
2280.754930021141
21
172.043289751999
31
0.0
0
LINE
5
5a4
100
AcDbEntity
8
F-0
6
CONTINUOUS
62
4
100
AcDbLine
10
2285.572448269316
20
176.860808000175
30
0.0
11
2313.163689145229
21
204.452048876087
31
0.0
0
LINE
5
5a5
100
AcDbEntity
8
F-0
6
CONTINUOUS
62
4
100
AcDbLine
10
2323.399553132943
20
214.687912863801
30
0.0
11
2334.786414446812
21
226.074774177670
31
0.0
0
LINE
5
5a6
100
AcDbEntity
8
F-0
6
CONTINUOUS
62
4
100
AcDbLine
10
2270.543773759695
20
166.074774177670
30
0.0
11
2280.754930021141
21
176.285930439116
31
0.0
0
LINE
5
5a7
100
AcDbEntity
8
F-0
6
CONTINUOUS
62
4
100
AcDbLine
10
2285.572448269316
20
181.103448687291
30
0.0
11
2313.163689145229
21
208.694689563203
31
0.0
0
LINE
5
5a8
100
AcDbEntity
8
F-0
6
CONTINUOUS
62
4
100
AcDbLine
10
2319.733032210922
20
215.264032628897
30
0.0
11
2330.543773759695
21
226.074774177670
31
0.0
0
LINE
5
5a9
100
AcDbEntity
8
F-0
6
CONTINUOUS
62
4
100
AcDbLine
10
2266.301133072572
20
166.074774177673
30
0.0
11
2280.754930021139
21
180.528571126239
31
0.0
0
LINE
5
5aa
100
AcDbEntity
8
F-0
6
CONTINUOUS
62
4
100
AcDbLine
10
2285.572448269314
20
185.346089374414
30
0.0
11
2313.163689145226
21
212.937330250327
31
0.0
0
LINE
5
5ab
100
AcDbEntity
8
F-0
6
CONTINUOUS
62
4
100
AcDbLine
10
2319.733032210920
20
219.506673316020
30
0.0
11
2326.301133072572
21
226.074774177672
31
0.0
0
LINE
5
5ac
100
AcDbEntity
8
F-0
6
CONTINUOUS
62
4
100
AcDbLine
10
2285.572448269314
20
189.588730061530
30
0.0
11
2313.163689145226
21
217.179970937443
31
0.0
0
LINE
5
5ad
100
AcDbEntity
8
F-0
6
CONTINUOUS
62
4
100
AcDbLine
10
2319.733032210920
20
223.749314003136
30
0.0
11
2322.058492385456
21
226.074774177672
31
0.0
0
LINE
5
5ae
100
AcDbEntity
8
F-0
6
CONTINUOUS
62
4
100
AcDbLine
10
2257.815851698339
20
166.074774177673
30
0.0
11
2280.754930021139
21
189.013852500472
31
0.0
0
LINE
5
5af
100
AcDbEntity
8
F-0
6
CONTINUOUS
62
4
100
AcDbLine
10
2253.573211011212
20
166.074774177670
30
0.0
11
2280.083778545373
21
192.585341711831
31
0.0
0
LINE
5
5b0
100
AcDbEntity
8
F-0
6
CONTINUOUS
62
4
100
AcDbLine
10
2253.163689145228
20
169.907892998803
30
0.0
11
2277.962458201815
21
194.706662055390
31
0.0
0
LINE
5
5b1
100
AcDbEntity
8
F-0
6
CONTINUOUS
62
4
100
AcDbLine
10
2253.163689145229
20
174.150533685920
30
0.0
11
2275.841137858257
21
196.827982398948
31
0.0
0
LINE
5
5b2
100
AcDbEntity
8
F-0
6
CONTINUOUS
62
4
100
AcDbLine
10
2253.163689145226
20
178.393174373043
30
0.0
11
2273.719817514694
21
198.949302742511
31
0.0
0
LINE
5
5b3
100
AcDbEntity
8
F-0
6
CONTINUOUS
62
4
100
AcDbLine
10
2253.163689145226
20
182.635815060160
30
0.0
11
2271.598497171136
21
201.070623086069
31
0.0
0
LINE
5
5b4
100
AcDbEntity
8
F-0
6
CONTINUOUS
62
4
100
AcDbLine
10
2253.163689145226
20
186.878455747276
30
0.0
11
2269.477176827578
21
203.191943429627
31
0.0
0
LINE
5
5b5
100
AcDbEntity
8
F-0
6
CONTINUOUS
62
4
100
AcDbLine
10
2253.163689145229
20
191.121096434403
30
0.0
11
2267.355856484015
21
205.313263773190
31
0.0
0
LINE
5
5b6
100
AcDbEntity
8
F-0
6
CONTINUOUS
62
4
100
AcDbLine
10
2253.163689145229
20
195.363737121520
30
0.0
11
2265.234536140457
21
207.434584116748
31
0.0
0
LINE
5
5b7
100
AcDbEntity
8
F-0
6
CONTINUOUS
62
4
100
AcDbLine
10
2253.163689145228
20
199.606377808636
30
0.0
11
2263.113215796899
21
209.555904460306
31
0.0
0
LINE
5
5b8
100
AcDbEntity
8
F-0
6
CONTINUOUS
62
4
100
AcDbLine
10
2253.163689145229
20
203.849018495752
30
0.0
11
2260.991895453341
21
211.677224803865
31
0.0
0
LINE
5
5b9
100
AcDbEntity
8
F-0
6
CONTINUOUS
62
4
100
AcDbLine
10
2253.163689145226
20
208.091659182875
30
0.0
11
2258.870575109778
21
213.798545147427
31
0.0
0
LINE
5
5ba
100
AcDbEntity
8
F-0
6
CONTINUOUS
62
4
100
AcDbLine
10
2253.163689145226
20
212.334299869992
30
0.0
11
2256.749254766220
21
215.919865490986
31
0.0
0
LINE
5
5bb
100
AcDbEntity
8
F-0
6
CONTINUOUS
62
4
100
AcDbLine
10
2253.163689145226
20
216.576940557108
30
0.0
11
2254.627934422662
21
218.041185834544
31
0.0
0
LINE
5
5bc
100
AcDbEntity
8
F-0
6
CONTINUOUS
62
7
100
AcDbLine
10
2253.163689145226
20
226.074774177672
30
0.0
11
2283.163689145226
21
196.074774177673
31
0.0
0
LINE
5
5bd
100
AcDbEntity
8
F-0
6
CONTINUOUS
62
7
100
AcDbLine
10
2313.163689145226
20
226.074774177672
30
0.0
11
2283.163689145226
21
196.074774177673
31
0.0
0
LINE
5
5be
100
AcDbEntity
8
F-0
6
CONTINUOUS
62
7
100
AcDbLine
10
2285.572448269314
20
191.914190236067
30
0.0
11
2313.163689145226
21
219.505431111979
31
0.0
0
LINE
5
5bf
100
AcDbEntity
8
F-0
6
CONTINUOUS
62
7
100
AcDbLine
10
2280.754930021139
20
191.914190236067
30
0.0
11
2253.163689145226
21
219.505431111979
31
0.0
0
LINE
5
5c0
100
AcDbEntity
8
F-0
6
CONTINUOUS
62
3
100
AcDbLine
10
2670.263063493506
20
218.410540601030
30
0.0
11
2692.336056194235
21
218.410540601030
31
0.0
0
LINE
5
5c1
100
AcDbEntity
8
F-0
6
CONTINUOUS
62
3
100
AcDbLine
10
2670.657224077447
20
211.841197535337
30
0.0
11
2682.087881011754
21
211.841197535337
31
0.0
0
LINE
5
5c2
100
AcDbEntity
8
F-0
6
CONTINUOUS
62
3
100
AcDbLine
10
2679.919997800075
20
183.812000455045
30
0.0
11
2692.138975902265
21
183.812000455045
31
0.0
0
LINE
5
5c3
100
AcDbEntity
8
F-0
6
CONTINUOUS
62
3
100
AcDbLine
10
2678.737516048251
20
167.607620893001
30
0.0
11
2692.533136486206
21
167.607620893001
31
0.0
0
ELLIPSE
  5
5c4
100
AcDbEntity
8
F-0
6
CONTINUOUS
62
3
100
AcDbEllipse
10
2692.572392739663
20
204.001603915901
30
0.0
11
0.000000000000
21
7.201282010402
31
0.0
210
0.0
220
0.0
230
1.0
40
0.900000000000
41
2.124986276797
42
2.565079625036
0
ELLIPSE
  5
5c5
100
AcDbEntity
8
F-0
6
CONTINUOUS
62
3
100
AcDbEllipse
10
2689.953769916690
20
202.200907819290
30
0.0
11
0.000000000000
21
3.779562043796
31
0.0
210
0.0
220
0.0
230
1.0
40
0.900000000000
41
2.008460713019
42
2.124986276797
0
ELLIPSE
  5
5c6
100
AcDbEntity
8
F-0
6
CONTINUOUS
62
3
100
AcDbEllipse
10
2689.819426825732
20
199.297098223580
30
0.0
11
0.000000000000
21
1.589781021898
31
0.0
210
0.0
220
0.0
230
1.0
40
0.900000000000
41
2.565079625036
42
4.065357465719
0
ELLIPSE
  5
5c7
100
AcDbEntity
8
F-0
6
CONTINUOUS
62
3
100
AcDbEllipse
10
2685.832406559199
20
202.644117243366
30
0.0
11
0.000000000000
21
7.142045049488
31
0.0
210
0.0
220
0.0
230
1.0
40
0.900000000000
41
4.065357465719
42
4.854286034989
0
ELLIPSE
  5
5c8
100
AcDbEntity
8
F-0
6
CONTINUOUS
62
3
100
AcDbEllipse
10
2684.255764223433
20
214.468934761614
30
0.0
11
0.000000000000
21
9.694300093614
31
0.0
210
0.0
220
0.0
230
1.0
40
0.900000000000
41
5.377163475202
42
5.927206633218
0
ELLIPSE
  5
5c9
100
AcDbEntity
8
F-0
6
CONTINUOUS
62
3
100
AcDbEllipse
10
2721.665186917528
20
217.176300388688
30
0.0
11
0.000000000000
21
42.064821724012
31
0.0
210
0.0
220
0.0
230
1.0
40
0.900000000000
41
1.557168556419
42
1.976354561581
0
LINE
5
5ca
100
AcDbEntity
8
F-0
6
CONTINUOUS
62
3
100
AcDbLine
10
2683.810362763579
20
217.749532376606
30
0.0
11
2683.810362763579
21
224.322949360154
31
0.0
0
ELLIPSE
  5
5cb
100
AcDbEntity
8
F-0
6
CONTINUOUS
62
3
100
AcDbEllipse
10
2655.031572356905
20
326.992396701137
30
0.0
11
0.000000000000
21
129.452681509098
31
0.0
210
0.0
220
0.0
230
1.0
40
0.900000000000
41
3.272702046202
42
3.382922853959
0
LINE
5
5cc
100
AcDbEntity
8
F-0
6
CONTINUOUS
62
3
100
AcDbLine
10
2685.733866413214
20
193.228058849205
30
0.0
11
2685.733866413213
21
167.607620893001
31
0.0
0
LINE
5
5cd
100
AcDbEntity
8
F-0
6
CONTINUOUS
62
3
100
AcDbLine
10
2674.992990500805
20
193.228058849205
30
0.0
11
2674.992990500805
21
187.315650090081
31
0.0
0
LINE
5
5ce
100
AcDbEntity
8
F-0
6
CONTINUOUS
62
3
100
AcDbLine
10
2670.460143785476
20
187.315650090081
30
0.0
11
2678.586466912504
21
187.315650090081
31
0.0
0
ELLIPSE
  5
5cf
100
AcDbEntity
8
F-0
6
CONTINUOUS
62
3
100
AcDbEllipse
10
2661.295910208834
20
193.611270528037
30
0.0
11
0.000000000000
21
20.216958070900
31
0.0
210
0.0
220
0.0
230
1.0
40
0.900000000000
41
3.661431048792
42
4.395719944014
0
LINE
5
5d0
100
AcDbEntity
8
F-0
6
CONTINUOUS
62
3
100
AcDbLine
10
2674.992990500805
20
166.074774177673
30
0.0
11
2674.992990500805
21
180.303073837065
31
0.0
0
ELLIPSE
  5
5d1
100
AcDbEntity
8
F-0
6
CONTINUOUS
62
3
100
AcDbEllipse
10
2656.829815146297
20
154.871570418000
30
0.0
11
0.000000000000
21
32.965659239525
31
0.0
210
0.0
220
0.0
230
1.0
40
0.900000000000
41
5.419526416125
42
5.611850392730
0
LINE
5
5d2
100
AcDbEntity
8
F-0
6
CONTINUOUS
62
3
100
AcDbLine
10
2676.372552544601
20
211.841197535337
30
0.0
11
2676.372552544601
21
199.729957972479
31
0.0
0
LINE
5
5d3
100
AcDbEntity
8
F-0
6
CONTINUOUS
62
3
100
AcDbLine
10
2643.069632836571
20
196.731708484242
30
0.0
11
2643.069632836572
21
224.322949360154
31
0.0
0
LINE
5
5d4
100
AcDbEntity
8
F-0
6
CONTINUOUS
62
3
100
AcDbLine
10
2638.930946705184
20
217.534628192271
30
0.0
11
2646.814158384017
21
217.534628192271
31
0.0
0
LINE
5
5d5
100
AcDbEntity
8
F-0
6
CONTINUOUS
62
3
100
AcDbLine
10
2654.303209478907
20
224.322949360154
30
0.0
11
2654.303209478907
21
196.731708484242
31
0.0
0
LINE
5
5d6
100
AcDbEntity
8
F-0
6
CONTINUOUS
62
3
100
AcDbLine
10
2646.814158384017
20
211.403241330957
30
0.0
11
2661.003939405914
21
211.403241330957
31
0.0
0
LINE
5
5d7
100
AcDbEntity
8
F-0
6
CONTINUOUS
62
3
100
AcDbLine
10
2643.857954004454
20
183.812000455045
30
0.0
11
2656.471092690586
21
183.812000455045
31
0.0
0
LINE
5
5d8
100
AcDbEntity
8
F-0
6
CONTINUOUS
62
3
100
AcDbLine
10
2639.128026997155
20
178.118569798111
30
0.0
11
2660.806859113944
21
178.118569798111
31
0.0
0
ELLIPSE
  5
5d9
100
AcDbEntity
8
F-0
6
CONTINUOUS
62
3
100
AcDbEllipse
10
2631.932012085424
20
460.973773952315
30
0.0
11
0.000000000000
21
293.544012864844
31
0.0
210
0.0
220
0.0
230
1.0
40
0.900000000000
41
3.170601245406
42
3.242649536738
0
ELLIPSE
  5
5da
100
AcDbEntity
8
F-0
6
CONTINUOUS
62
3
100
AcDbEllipse
10
2632.098829916862
20
147.753606294459
30
0.0
11
0.000000000000
21
36.254447579043
31
0.0
210
0.0
220
0.0
230
1.0
40
0.900000000000
41
5.254209322278
42
5.568879377645
0
ELLIPSE
  5
5db
100
AcDbEntity
8
F-0
6
CONTINUOUS
62
3
100
AcDbEllipse
10
2613.113428457005
20
189.505431111982
30
0.0
11
0.000000000000
21
39.480177163286
31
0.0
210
0.0
220
0.0
230
1.0
40
0.900000000000
41
4.126478974162
42
4.419812978481
0
ELLIPSE
  5
5dc
100
AcDbEntity
8
F-0
6
CONTINUOUS
62
3
100
AcDbEllipse
10
2623.417912294340
20
218.160279912813
30
0.0
11
0.000000000000
21
21.379974330949
31
0.0
210
0.0
220
0.0
230
1.0
40
0.900000000000
41
4.073201052371
42
4.683121356329
0
ELLIPSE
  5
5dd
100
AcDbEntity
8
F-0
6
CONTINUOUS
62
3
100
AcDbEllipse
10
2654.836485563063
20
217.676319905453
30
0.0
11
0.000000000000
21
13.043001954371
31
0.0
210
0.0
220
0.0
230
1.0
40
0.900000000000
41
1.581659968521
42
2.365377733401
0
ELLIPSE
  5
5de
100
AcDbEntity
8
F-0
6
CONTINUOUS
62
3
100
AcDbEllipse
10
2673.074242901881
20
216.312960885318
30
0.0
11
0.000000000000
21
20.920188052215
31
0.0
210
0.0
220
0.0
230
1.0
40
0.900000000000
41
1.807694039161
42
2.474197841918
0
ELLIPSE
  5
5df
100
AcDbEntity
8
F-0
6
CONTINUOUS
62
3
100
AcDbEllipse
10
2632.230216778177
20
219.943387316358
30
0.0
11
0.000000000000
21
25.567345075163
31
0.0
210
0.0
220
0.0
230
1.0
40
0.900000000000
41
3.812619361543
42
4.371817790284
0
LINE
5
5e0
100
AcDbEntity
8
F-0
6
CONTINUOUS
62
3
100
AcDbLine
10
2660.609778821973
20
218.410540601030
30
0.0
11
2649.452821839299
21
218.410540601030
31
0.0
0
ELLIPSE
  5
5e1
100
AcDbEntity
8
F-0
6
CONTINUOUS
62
3
100
AcDbEllipse
10
2635.274012398616
20
224.736574664290
30
0.0
11
0.000000000000
21
16.976882968004
31
0.0
210
0.0
220
0.0
230
1.0
40
0.900000000000
41
4.067032057160
42
4.633566043677
0
ELLIPSE
  5
5e2
100
AcDbEntity
8
F-0
6
CONTINUOUS
62
3
100
AcDbEllipse
10
2631.587881011754
20
205.120462201463
30
0.0
11
0.000000000000
21
23.292646358501
31
0.0
210
0.0
220
0.0
230
1.0
40
0.900000000000
41
3.492075841377
42
4.201210109885
0
ELLIPSE
  5
5e3
100
AcDbEntity
8
F-0
6
CONTINUOUS
62
3
100
AcDbEllipse
10
2671.722564317617
20
209.792692708400
30
0.0
11
0.000000000000
21
29.113941057854
31
0.0
210
0.0
220
0.0
230
1.0
40
0.900000000000
41
2.155401983928
42
2.731679077889
0
LINE
5
5e4
100
AcDbEntity
8
F-0
6
CONTINUOUS
62
7
100
AcDbLine
10
175.163689145226
20
196.074774177673
30
0.0
11
615.163689145226
21
196.074774177673
31
0.0
0
LINE
5
5e5
100
AcDbEntity
8
F-F_J_ADD
6
HIDDEN
62
253
100
AcDbLine
10
2915.163689145226
20
146.074774177673
30
0.0
11
2915.163689145226
21
246.074774177672
31
0.0
0
LINE
5
5e6
100
AcDbEntity
8
F-F_J_ADD
6
HIDDEN
62
253
100
AcDbLine
10
3175.163689145226
20
146.074774177673
30
0.0
11
3175.163689145226
21
246.074774177672
31
0.0
0
LINE
5
5e7
100
AcDbEntity
8
F-F_J_ADD
6
HIDDEN
62
253
100
AcDbLine
10
3505.163689145226
20
246.074774177672
30
0.0
11
3505.163689145226
21
146.074774177673
31
0.0
0
LINE
5
5e8
100
AcDbEntity
8
F-F_J_ADD
6
HIDDEN
62
253
100
AcDbLine
10
635.163689145226
20
186.074774177673
30
0.0
11
2215.163689145226
21
186.074774177673
31
0.0
0
TEXT
5
5e9
100
AcDbEntity
8
F-0
62
7
370
-3
100
AcDbText
10
2746.538
20
217.382
30
0.0
40
21.038
41
0.582
50
0.000
1
ＳＣＡＬＥ
72
0
11
2745.538
21
222.044
31
0.0
100
AcDbText
73
2
0
TEXT
5
5ea
100
AcDbEntity
8
F-0
62
7
370
-3
100
AcDbText
10
1451.164
20
217.412
30
0.0
40
21.038
41
0.822
50
0.000
1
図面名称
72
0
11
1450.164
21
225.575
31
0.0
100
AcDbText
73
2
0
TEXT
5
5eb
100
AcDbEntity
8
F-0
62
7
370
-3
100
AcDbText
10
661.164
20
217.412
30
0.0
40
21.038
41
0.822
50
0.000
1
名　称
72
0
11
660.164
21
225.575
31
0.0
100
AcDbText
73
2
0
LINE
5
5ec
100
AcDbEntity
8
F-F_J_ADD
6
HIDDEN
62
253
100
AcDbLine
10
1820.163689145226
20
146.074774177673
30
0.0
11
1820.163689145226
21
246.074774177672
31
0.0
0
LINE
5
5ed
100
AcDbEntity
8
F-0
6
CONTINUOUS
62
7
100
AcDbLine
10
2170.163689145226
20
2898.074774177672
30
0.0
11
2171.313689145226
21
2900.074774177673
31
0.0
0
POLYLINE
5
5ee
100
AcDbEntity
8
F-0
6
CONTINUOUS
62
  7
100
AcDb2dPolyline
66
1
10
0.0
20
0.0
30
0.0
70
0
0
VERTEX
5
5ef
100
AcDbEntity
8
F-0
6
CONTINUOUS
62
  7
100
AcDbVertex
100
AcDb2dVertex
10
2163.803689145226
20
2903.074774177672
30
0.0
0
VERTEX
5
5f0
100
AcDbEntity
8
F-0
6
CONTINUOUS
62
  7
100
AcDbVertex
100
AcDb2dVertex
10
2170.163689145226
20
2892.074774177672
30
0.0
0
VERTEX
5
5f1
100
AcDbEntity
8
F-0
6
CONTINUOUS
62
  7
100
AcDbVertex
100
AcDb2dVertex
10
2176.513689145226
20
2903.074774177672
30
0.0
0
SEQEND
5
5f2
100
AcDbEntity
8
F-0
0
LINE
5
5f3
100
AcDbEntity
8
F-0
6
CONTINUOUS
62
7
100
AcDbLine
10
2170.163689145226
20
2886.074774177672
30
0.0
11
2181.703689145226
21
2906.074774177672
31
0.0
0
LINE
5
5f4
100
AcDbEntity
8
F-0
6
CONTINUOUS
62
7
100
AcDbLine
10
2158.613689145226
20
2906.074774177672
30
0.0
11
2170.163689145226
21
2886.074774177672
31
0.0
0
LINE
5
5f5
100
AcDbEntity
8
F-0
6
CONTINUOUS
62
7
100
AcDbLine
10
2181.703689145226
20
2906.074774177672
30
0.0
11
2158.613689145226
21
2906.074774177672
31
0.0
0
LINE
5
5f6
100
AcDbEntity
8
F-0
6
CONTINUOUS
62
7
100
AcDbLine
10
2169.003689145226
20
2900.074774177673
30
0.0
11
2170.163689145226
21
2898.074774177672
31
0.0
0
LINE
5
5f7
100
AcDbEntity
8
F-0
6
CONTINUOUS
62
7
100
AcDbLine
10
2171.313689145226
20
2900.074774177673
30
0.0
11
2169.003689145226
21
2900.074774177673
31
0.0
0
LINE
5
5f8
100
AcDbEntity
8
F-0
6
CONTINUOUS
62
7
100
AcDbLine
10
2176.513689145226
20
2903.074774177672
30
0.0
11
2163.803689145226
21
2903.074774177672
31
0.0
0
POLYLINE
5
5f9
100
AcDbEntity
8
F-0
6
CONTINUOUS
62
  7
100
AcDb2dPolyline
66
1
10
0.0
20
0.0
30
0.0
70
0
0
VERTEX
5
5fa
100
AcDbEntity
8
F-0
6
CONTINUOUS
62
  7
100
AcDbVertex
100
AcDb2dVertex
10
125.163689145226
20
1488.754266101984
30
0.0
0
VERTEX
5
5fb
100
AcDbEntity
8
F-0
6
CONTINUOUS
62
  7
100
AcDbVertex
100
AcDb2dVertex
10
125.163689145226
20
1523.395282253361
30
0.0
0
VERTEX
5
5fc
100
AcDbEntity
8
F-0
6
CONTINUOUS
62
  7
100
AcDbVertex
100
AcDb2dVertex
10
155.163689145226
20
1506.074774177673
30
0.0
0
VERTEX
5
5fd
100
AcDbEntity
8
F-0
6
CONTINUOUS
62
  7
100
AcDbVertex
100
AcDb2dVertex
10
125.163689145226
20
1488.754266101984
30
0.0
0
SEQEND
5
5fe
100
AcDbEntity
8
F-0
0
POLYLINE
5
5ff
100
AcDbEntity
8
F-0
6
CONTINUOUS
62
  7
100
AcDb2dPolyline
66
1
10
0.0
20
0.0
30
0.0
70
0
0
VERTEX
5
600
100
AcDbEntity
8
F-0
6
CONTINUOUS
62
  7
100
AcDbVertex
100
AcDb2dVertex
10
130.163689145226
20
1497.414520139828
30
0.0
0
VERTEX
5
601
100
AcDbEntity
8
F-0
6
CONTINUOUS
62
  7
100
AcDbVertex
100
AcDb2dVertex
10
130.163689145226
20
1514.735028215517
30
0.0
0
VERTEX
5
602
100
AcDbEntity
8
F-0
6
CONTINUOUS
62
  7
100
AcDbVertex
100
AcDb2dVertex
10
145.163689145226
20
1506.074774177673
30
0.0
0
VERTEX
5
603
100
AcDbEntity
8
F-0
6
CONTINUOUS
62
  7
100
AcDbVertex
100
AcDb2dVertex
10
130.163689145226
20
1497.414520139828
30
0.0
0
SEQEND
5
604
100
AcDbEntity
8
F-0
0
POLYLINE
5
605
100
AcDbEntity
8
F-0
6
CONTINUOUS
62
  7
100
AcDb2dPolyline
66
1
10
0.0
20
0.0
30
0.0
70
0
0
VERTEX
5
606
100
AcDbEntity
8
F-0
6
CONTINUOUS
62
  7
100
AcDbVertex
100
AcDb2dVertex
10
134.163689145225
20
1504.342723370103
30
0.0
0
VERTEX
5
607
100
AcDbEntity
8
F-0
6
CONTINUOUS
62
  7
100
AcDbVertex
100
AcDb2dVertex
10
134.163689145225
20
1507.806824985242
30
0.0
0
VERTEX
5
608
100
AcDbEntity
8
F-0
6
CONTINUOUS
62
  7
100
AcDbVertex
100
AcDb2dVertex
10
137.163689145227
20
1506.074774177673
30
0.0
0
VERTEX
5
609
100
AcDbEntity
8
F-0
6
CONTINUOUS
62
  7
100
AcDbVertex
100
AcDb2dVertex
10
134.163689145225
20
1504.342723370103
30
0.0
0
SEQEND
5
60a
100
AcDbEntity
8
F-0
0
LINE
5
60b
100
AcDbEntity
8
F-F_J_ADD
6
HIDDEN
62
253
100
AcDbLine
10
1870.163689145226
20
146.074774177673
30
0.0
11
1870.163689145226
21
246.074774177672
31
0.0
0
MTEXT
5
60c
100
AcDbEntity
8
F-0
62
7
370
-3
100
AcDbMText
10
155.949
20
92.275
30
0.0
40
15.895
41
0.000
71
7
72
1
1
\W0.972;{\W0.700;SOU }吊戸棚{\W0.700; L=750.jww}
7
STANDARD
11
1.00000
21
0.00000
31
0.0
0
LINE
5
60d
100
AcDbEntity
8
F-F_J_ADD
6
HIDDEN
62
253
100
AcDbLine
10
130.163689145226
20
91.074774177673
30
0.0
11
185.148689145226
21
91.074774823678
31
0.0
0
TEXT
5
60e
100
AcDbEntity
8
F-0
62
7
370
-3
100
AcDbText
10
3995.964
20
94.145
30
0.0
40
16.830
41
0.600
50
0.000
1
21
72
2
11
4015.164
21
91.075
31
0.0
100
AcDbText
73
1
0
TEXT
5
60f
100
AcDbEntity
8
F-0
62
7
370
-3
100
AcDbText
10
4025.964
20
94.145
30
0.0
40
16.830
41
0.856
50
0.000
1
．
72
2
11
4045.164
21
91.075
31
0.0
100
AcDbText
73
1
0
TEXT
5
610
100
AcDbEntity
8
F-0
62
7
370
-3
100
AcDbText
10
4055.964
20
94.145
30
0.0
40
16.830
41
0.557
50
0.000
1
05
72
2
11
4075.164
21
91.075
31
0.0
100
AcDbText
73
1
0
TEXT
5
611
100
AcDbEntity
8
F-0
62
7
370
-3
100
AcDbText
10
4085.964
20
94.145
30
0.0
40
16.830
41
0.856
50
0.000
1
．
72
2
11
4105.164
21
91.075
31
0.0
100
AcDbText
73
1
0
TEXT
5
612
100
AcDbEntity
8
F-0
62
7
370
-3
100
AcDbText
10
4115.964
20
94.145
30
0.0
40
16.830
41
0.633
50
0.000
1
15
72
2
11
4135.164
21
91.075
31
0.0
100
AcDbText
73
1
0
LINE
5
613
100
AcDbEntity
8
F-F_J_ADD
6
HIDDEN
62
253
100
AcDbLine
10
4135.163689145226
20
126.074774177673
30
0.0
11
4135.163689145226
21
91.074777407702
31
0.0
0
LINE
5
614
100
AcDbEntity
8
F-F_J_ADD
6
HIDDEN
62
253
100
AcDbLine
10
4105.163689145226
20
126.074774177673
30
0.0
11
4105.163689145226
21
91.074777407702
31
0.0
0
LINE
5
615
100
AcDbEntity
8
F-F_J_ADD
6
HIDDEN
62
253
100
AcDbLine
10
4075.163689145226
20
126.074774177673
30
0.0
11
4075.163689145226
21
91.074777407702
31
0.0
0
LINE
5
616
100
AcDbEntity
8
F-F_J_ADD
6
HIDDEN
62
253
100
AcDbLine
10
4045.163689145227
20
126.074774177673
30
0.0
11
4045.163689145227
21
91.074777407702
31
0.0
0
LINE
5
617
100
AcDbEntity
8
F-F_J_ADD
6
HIDDEN
62
253
100
AcDbLine
10
4015.163689145226
20
126.074774177673
30
0.0
11
4015.163689145226
21
91.074777407702
31
0.0
0
LINE
5
618
100
AcDbEntity
8
F-F_J_ADD
6
HIDDEN
62
253
100
AcDbLine
10
3985.163689145226
20
126.074774177673
30
0.0
11
3985.163689145226
21
91.074774177673
31
0.0
0
LINE
5
619
100
AcDbEntity
8
F-F_J_ADD
6
HIDDEN
62
253
100
AcDbLine
10
3985.163689145226
20
91.074774177673
30
0.0
11
4135.163689145226
21
91.074777407702
31
0.0
0
LINE
5
61a
100
AcDbEntity
8
F-F_J_ADD
6
HIDDEN
62
253
100
AcDbLine
10
130.163689145226
20
91.074774177673
30
0.0
11
130.163689145226
21
2886.074774177672
31
0.0
0
INSERT
5
61b
100
AcDbEntity
8
F-0
62
7
100
AcDbBlockReference
2
33-108AX__39_4
10
19016.599019556372
20
23834.099562044612
30
0.0
41
2.000
42
2.000
43
1.000
50
0.000000
0
INSERT
5
61c
100
AcDbEntity
8
F-0
62
7
100
AcDbBlockReference
2
33-108AX__42_7
10
17975.235836179432
20
23834.099562044616
30
0.0
41
2.000
42
2.000
43
1.000
50
0.000000
0
TEXT
5
61d
100
AcDbEntity
8
F-0
62
7
370
-3
100
AcDbText
10
3046.164
20
217.412
30
0.0
40
21.038
1
ＤＡＴＡ
41
0.582
50
0.000
100
AcDbText
0
TEXT
5
61e
100
AcDbEntity
8
F-1
62
7
370
-3
100
AcDbText
10
3578.610
20
173.947
30
0.0
40
29.453
1
Ｍ．Ｉ
41
0.636
50
0.000
100
AcDbText
0
LINE
5
61f
100
AcDbEntity
8
1-5棚板受
6
CONTINUOUS
62
7
100
AcDbLine
10
1505.970159669963
20
958.152098016629
30
0.0
11
1505.970159669963
21
960.152098016629
31
0.0
0
LINE
5
620
100
AcDbEntity
8
1-5棚板受
6
CONTINUOUS
62
7
100
AcDbLine
10
1505.970159669963
20
1154.152098016629
30
0.0
11
1505.970159669963
21
1156.152098016629
31
0.0
0
LINE
5
621
100
AcDbEntity
8
1-5棚板受
6
CONTINUOUS
62
7
100
AcDbLine
10
1485.970159669963
20
958.152098016629
30
0.0
11
1485.970159669963
21
960.152098016629
31
0.0
0
POLYLINE
5
622
100
AcDbEntity
8
1-5棚板受
6
CONTINUOUS
62
  7
100
AcDb2dPolyline
66
1
10
0.0
20
0.0
30
0.0
70
0
0
VERTEX
5
623
100
AcDbEntity
8
1-5棚板受
6
CONTINUOUS
62
  7
100
AcDbVertex
100
AcDb2dVertex
10
1485.970159669963
20
1154.152098016629
30
0.0
0
VERTEX
5
624
100
AcDbEntity
8
1-5棚板受
6
CONTINUOUS
62
  7
100
AcDbVertex
100
AcDb2dVertex
10
1485.970159669963
20
1156.152098016629
30
0.0
0
VERTEX
5
625
100
AcDbEntity
8
1-5棚板受
6
CONTINUOUS
62
  7
100
AcDbVertex
100
AcDb2dVertex
10
1505.970159669963
20
1156.152098016629
30
0.0
0
SEQEND
5
626
100
AcDbEntity
8
1-5棚板受
0
LINE
5
627
100
AcDbEntity
8
1-5棚板受
6
CONTINUOUS
62
7
100
AcDbLine
10
1485.970159669963
20
1154.152098016629
30
0.0
11
1505.970159669963
21
1154.152098016629
31
0.0
0
LINE
5
628
100
AcDbEntity
8
1-5棚板受
6
CONTINUOUS
62
7
100
AcDbLine
10
1485.970159669963
20
958.152098016629
30
0.0
11
1505.970159669963
21
958.152098016629
31
0.0
0
LINE
5
629
100
AcDbEntity
8
1-5棚板受
6
CONTINUOUS
62
7
100
AcDbLine
10
1505.970159669963
20
960.152098016629
30
0.0
11
1485.970159669963
21
960.152098016629
31
0.0
0
LINE
5
62a
100
AcDbEntity
8
F-F_J_ADD
6
HIDDEN
62
253
100
AcDbLine
10
2307.970159669964
20
2145.646925785541
30
0.0
11
1107.970159669964
21
2145.646925785541
31
0.0
0
LINE
5
62b
100
AcDbEntity
8
F-F_J_ADD
6
HIDDEN
62
253
100
AcDbLine
10
2307.970159669964
20
2270.646925785541
30
0.0
11
1107.970159669964
21
2270.646925785541
31
0.0
0
LINE
5
62c
100
AcDbEntity
8
F-F_J_ADD
6
HIDDEN
62
253
100
AcDbLine
10
2307.970159669964
20
2395.646925785541
30
0.0
11
1107.970159669964
21
2395.646925785541
31
0.0
0
LINE
5
62d
100
AcDbEntity
8
F-F_J_ADD
6
HIDDEN
62
253
100
AcDbLine
10
1107.970159669964
20
2423.646925785541
30
0.0
11
2307.970159669964
21
2423.646925785541
31
0.0
0
LINE
5
62e
100
AcDbEntity
8
1-5棚板受
6
DOT
62
7
100
AcDbLine
10
1485.970159669963
20
2095.646925785541
30
0.0
11
1485.970159669963
21
2445.646925785541
31
0.0
0
LINE
5
62f
100
AcDbEntity
8
1-5棚板受
6
DOT
62
7
100
AcDbLine
10
1505.970159669963
20
2095.646925785541
30
0.0
11
1505.970159669963
21
2445.646925785541
31
0.0
0
CIRCLE
5
630
100
AcDbEntity
8
1-5棚板受
6
DOT
62
7
100
AcDbCircle
10
1495.970159669963
20
2101.646925785541
30
0.0
40
3.500000000000
0
CIRCLE
5
631
100
AcDbEntity
8
1-5棚板受
6
DOT
62
7
100
AcDbCircle
10
1495.970159669963
20
2439.646925785541
30
0.0
40
3.500000000000
0
CIRCLE
5
632
100
AcDbEntity
8
1-5棚板受
6
DOT
62
7
100
AcDbCircle
10
1495.970159669963
20
2150.646925785541
30
0.0
40
2.500000000000
0
CIRCLE
5
633
100
AcDbEntity
8
1-5棚板受
6
DOT
62
7
100
AcDbCircle
10
1495.970159669963
20
2270.646925785541
30
0.0
40
2.500000000000
0
CIRCLE
5
634
100
AcDbEntity
8
1-5棚板受
6
DOT
62
7
100
AcDbCircle
10
1495.970159669963
20
2390.646925785541
30
0.0
40
2.500000000000
0
LINE
5
635
100
AcDbEntity
8
1-5棚板受
6
DOT
62
7
100
AcDbLine
10
1485.970159669963
20
2095.646925785541
30
0.0
11
1505.970159669963
21
2095.646925785541
31
0.0
0
LINE
5
636
100
AcDbEntity
8
1-5棚板受
6
DOT
62
7
100
AcDbLine
10
1485.970159669963
20
2445.646925785541
30
0.0
11
1505.970159669963
21
2445.646925785541
31
0.0
0
LINE
5
637
100
AcDbEntity
8
1-3中フレーム
6
CONTINUOUS
62
7
100
AcDbLine
10
3246.864551083591
20
960.152098016629
30
0.0
11
3572.864551083591
21
960.152098016629
31
0.0
0
LINE
5
638
100
AcDbEntity
8
1-1左右フレーム
6
CONTINUOUS
62
7
100
AcDbLine
10
3584.864551083591
20
1364.152098016629
30
0.0
11
3234.864551083591
21
1364.152098016629
31
0.0
0
LINE
5
639
100
AcDbEntity
8
1-2前後フレーム
6
CONTINUOUS
62
7
100
AcDbLine
10
3234.864551083591
20
1364.152098016629
30
0.0
11
3234.864551083591
21
764.152098016629
31
0.0
0
LINE
5
63a
100
AcDbEntity
8
1-2前後フレーム
6
CONTINUOUS
62
7
100
AcDbLine
10
3584.864551083591
20
764.152098016629
30
0.0
11
3584.864551083591
21
1364.152098016629
31
0.0
0
LINE
5
63b
100
AcDbEntity
8
1-2前後フレーム
6
CONTINUOUS
62
7
100
AcDbLine
10
3234.864551083591
20
1364.152098016629
30
0.0
11
3246.864551083591
21
1352.152098016629
31
0.0
0
LINE
5
63c
100
AcDbEntity
8
1-2前後フレーム
6
CONTINUOUS
62
7
100
AcDbLine
10
3584.864551083591
20
1364.152098016629
30
0.0
11
3572.864551083591
21
1352.152098016629
31
0.0
0
LINE
5
63d
100
AcDbEntity
8
1-1左右フレーム
6
CONTINUOUS
62
7
100
AcDbLine
10
3246.864551083591
20
1352.152098016629
30
0.0
11
3572.864551083591
21
1352.152098016629
31
0.0
0
LINE
5
63e
100
AcDbEntity
8
1-1左右フレーム
6
CONTINUOUS
62
7
100
AcDbLine
10
3234.864551083591
20
1364.152098016629
30
0.0
11
3246.864551083591
21
1352.152098016629
31
0.0
0
LINE
5
63f
100
AcDbEntity
8
1-1左右フレーム
6
CONTINUOUS
62
7
100
AcDbLine
10
3584.864551083591
20
1364.152098016629
30
0.0
11
3572.864551083591
21
1352.152098016629
31
0.0
0
LINE
5
640
100
AcDbEntity
8
1-1左右フレーム
6
CONTINUOUS
62
7
100
AcDbLine
10
3584.864551083591
20
764.152098016629
30
0.0
11
3572.864551083591
21
776.152098016629
31
0.0
0
POLYLINE
5
641
100
AcDbEntity
8
1-1左右フレーム
6
CONTINUOUS
62
  7
100
AcDb2dPolyline
66
1
10
0.0
20
0.0
30
0.0
70
0
0
VERTEX
5
642
100
AcDbEntity
8
1-1左右フレーム
6
CONTINUOUS
62
  7
100
AcDbVertex
100
AcDb2dVertex
10
3234.864551083591
20
764.152098016629
30
0.0
0
VERTEX
5
643
100
AcDbEntity
8
1-1左右フレーム
6
CONTINUOUS
62
  7
100
AcDbVertex
100
AcDb2dVertex
10
3246.864551083591
20
776.152098016629
30
0.0
0
VERTEX
5
644
100
AcDbEntity
8
1-1左右フレーム
6
CONTINUOUS
62
  7
100
AcDbVertex
100
AcDb2dVertex
10
3572.864551083591
20
776.152098016629
30
0.0
0
SEQEND
5
645
100
AcDbEntity
8
1-1左右フレーム
0
LINE
5
646
100
AcDbEntity
8
1-1左右フレーム
6
CONTINUOUS
62
7
100
AcDbLine
10
3584.864551083591
20
764.152098016629
30
0.0
11
3234.864551083591
21
764.152098016629
31
0.0
0
LINE
5
647
100
AcDbEntity
8
1-2前後フレーム
6
CONTINUOUS
62
7
100
AcDbLine
10
3246.864551083591
20
776.152098016629
30
0.0
11
3246.864551083591
21
1352.152098016629
31
0.0
0
LINE
5
648
100
AcDbEntity
8
1-2前後フレーム
6
CONTINUOUS
62
7
100
AcDbLine
10
3572.864551083591
20
1352.152098016629
30
0.0
11
3572.864551083591
21
776.152098016629
31
0.0
0
LINE
5
649
100
AcDbEntity
8
1-2前後フレーム
6
CONTINUOUS
62
7
100
AcDbLine
10
3246.864551083591
20
776.152098016629
30
0.0
11
3234.864551083591
21
764.152098016629
31
0.0
0
LINE
5
64a
100
AcDbEntity
8
1-2前後フレーム
6
CONTINUOUS
62
7
100
AcDbLine
10
3572.864551083591
20
776.152098016629
30
0.0
11
3584.864551083591
21
764.152098016629
31
0.0
0
LINE
5
64b
100
AcDbEntity
8
1-3中フレーム
6
CONTINUOUS
62
7
100
AcDbLine
10
3246.864551083591
20
1168.152098016629
30
0.0
11
3572.864551083591
21
1168.152098016629
31
0.0
0
LINE
5
64c
100
AcDbEntity
8
1-3中フレーム
6
CONTINUOUS
62
7
100
AcDbLine
10
3246.864551083591
20
1156.152098016629
30
0.0
11
3572.864551083591
21
1156.152098016629
31
0.0
0
LINE
5
64d
100
AcDbEntity
8
1-3中フレーム
6
CONTINUOUS
62
7
100
AcDbLine
10
3246.864551083591
20
972.152098016629
30
0.0
11
3572.864551083591
21
972.152098016629
31
0.0
0
LINE
5
64e
100
AcDbEntity
8
1-5棚板受
6
CONTINUOUS
62
7
100
AcDbLine
10
3251.864551083591
20
958.152098016629
30
0.0
11
3567.864551083591
21
958.152098016629
31
0.0
0
LINE
5
64f
100
AcDbEntity
8
1-5棚板受
6
CONTINUOUS
62
7
100
AcDbLine
10
3251.864551083591
20
1154.152098016629
30
0.0
11
3567.864551083591
21
1154.152098016629
31
0.0
0
LINE
5
650
100
AcDbEntity
8
1-5棚板受
6
CONTINUOUS
62
7
100
AcDbLine
10
3251.864551083591
20
1156.152098016629
30
0.0
11
3567.864551083591
21
1156.152098016629
31
0.0
0
LINE
5
651
100
AcDbEntity
8
1-5棚板受
6
CONTINUOUS
62
7
100
AcDbLine
10
3567.864551083591
20
960.152098016629
30
0.0
11
3251.864551083591
21
960.152098016629
31
0.0
0
LINE
5
652
100
AcDbEntity
8
1-5棚板受
6
CONTINUOUS
62
7
100
AcDbLine
10
3251.864551083591
20
958.152098016629
30
0.0
11
3251.864551083591
21
960.152098016629
31
0.0
0
LINE
5
653
100
AcDbEntity
8
1-5棚板受
6
CONTINUOUS
62
7
100
AcDbLine
10
3567.864551083591
20
958.152098016629
30
0.0
11
3567.864551083591
21
960.152098016629
31
0.0
0
LINE
5
654
100
AcDbEntity
8
1-5棚板受
6
CONTINUOUS
62
7
100
AcDbLine
10
3567.864551083591
20
1154.152098016629
30
0.0
11
3567.864551083591
21
1156.152098016629
31
0.0
0
LINE
5
655
100
AcDbEntity
8
1-5棚板受
6
CONTINUOUS
62
7
100
AcDbLine
10
3251.864551083591
20
1154.152098016629
30
0.0
11
3251.864551083591
21
1156.152098016629
31
0.0
0
TEXT
5
656
100
AcDbEntity
8
F-0
62
7
370
-3
100
AcDbText
10
3726.164
20
217.412
30
0.0
40
21.038
1
ＳＨＥＥＴ　ＮＯ．
41
0.582
50
0.000
100
AcDbText
0
LINE
5
657
100
AcDbEntity
8
F-F_J_ADD
6
HIDDEN
62
253
100
AcDbLine
10
2307.970159669964
20
2495.646925785541
30
0.0
11
1107.970159669964
21
2495.646925785541
31
0.0
0
LINE
5
658
100
AcDbEntity
8
F-F_J_ADD
6
HIDDEN
62
253
100
AcDbLine
10
2307.970159669964
20
2545.646925785541
30
0.0
11
1107.970159669964
21
2545.646925785541
31
0.0
0
LINE
5
659
100
AcDbEntity
8
F-F_J_ADD
6
HIDDEN
62
253
100
AcDbLine
10
2307.970159669964
20
2595.646925785541
30
0.0
11
1107.970159669964
21
2595.646925785541
31
0.0
0
LINE
5
65a
100
AcDbEntity
8
F-F_J_ADD
6
HIDDEN
62
253
100
AcDbLine
10
2307.970159669964
20
2645.646925785541
30
0.0
11
1107.970159669964
21
2645.646925785541
31
0.0
0
LINE
5
65b
100
AcDbEntity
8
F-F_J_ADD
6
HIDDEN
62
253
100
AcDbLine
10
2307.970159669964
20
2695.646925785541
30
0.0
11
1107.970159669964
21
2695.646925785541
31
0.0
0
LINE
5
65c
100
AcDbEntity
8
F-F_J_ADD
6
HIDDEN
62
253
100
AcDbLine
10
3634.864551083591
20
764.152098016629
30
0.0
11
3634.864551083591
21
1364.152098016629
31
0.0
0
LINE
5
65d
100
AcDbEntity
8
F-F_J_ADD
6
HIDDEN
62
253
100
AcDbLine
10
3684.864551083591
20
764.152098016629
30
0.0
11
3684.864551083591
21
1364.152098016629
31
0.0
0
LINE
5
65e
100
AcDbEntity
8
F-F_J_ADD
6
HIDDEN
62
253
100
AcDbLine
10
3734.864551083591
20
764.152098016629
30
0.0
11
3734.864551083591
21
1364.152098016629
31
0.0
0
LINE
5
65f
100
AcDbEntity
8
F-F_J_ADD
6
HIDDEN
62
253
100
AcDbLine
10
3784.864551083591
20
764.152098016629
30
0.0
11
3784.864551083591
21
1364.152098016629
31
0.0
0
LINE
5
660
100
AcDbEntity
8
F-F_J_ADD
6
HIDDEN
62
253
100
AcDbLine
10
3834.864551083591
20
764.152098016629
30
0.0
11
3834.864551083591
21
1364.152098016629
31
0.0
0
LINE
5
661
100
AcDbEntity
8
F-F_J_ADD
6
HIDDEN
62
253
100
AcDbLine
10
3584.864551083591
20
1414.152098016629
30
0.0
11
3234.864551083591
21
1414.152098016629
31
0.0
0
LINE
5
662
100
AcDbEntity
8
F-F_J_ADD
6
HIDDEN
62
253
100
AcDbLine
10
3584.864551083591
20
1464.152098016629
30
0.0
11
3234.864551083591
21
1464.152098016629
31
0.0
0
LINE
5
663
100
AcDbEntity
8
F-F_J_ADD
6
HIDDEN
62
253
100
AcDbLine
10
3584.864551083591
20
1514.152098016629
30
0.0
11
3234.864551083591
21
1514.152098016629
31
0.0
0
LINE
5
664
100
AcDbEntity
8
F-F_J_ADD
6
HIDDEN
62
253
100
AcDbLine
10
3584.864551083591
20
1564.152098016629
30
0.0
11
3234.864551083591
21
1564.152098016629
31
0.0
0
POLYLINE
5
665
100
AcDbEntity
  8
1-A寸法
6
CONTINUOUS
62
3
100
AcDb2dPolyline
66
1
10
0
20
0
70
1
40
4.000
41
4.000
0
VERTEX
5
666
100
AcDbEntity
  8
1-A寸法
6
CONTINUOUS
62
3
100
AcDbVertex
100
AcDb2dVertex
10
3732.865
20
1364.152
30
0.0
42
1.000
0
VERTEX
5
667
100
AcDbEntity
  8
1-A寸法
6
CONTINUOUS
62
3
100
AcDbVertex
100
AcDb2dVertex
10
3736.865
20
1364.152
30
0.0
42
1.000
0
SEQEND
5
668
100
AcDbEntity
  8
1-A寸法
0
POLYLINE
5
669
100
AcDbEntity
  8
1-A寸法
6
CONTINUOUS
62
3
100
AcDb2dPolyline
66
1
10
0
20
0
70
1
40
4.000
41
4.000
0
VERTEX
5
66a
100
AcDbEntity
  8
1-A寸法
6
CONTINUOUS
62
3
100
AcDbVertex
100
AcDb2dVertex
10
3732.865
20
764.152
30
0.0
42
1.000
0
VERTEX
5
66b
100
AcDbEntity
  8
1-A寸法
6
CONTINUOUS
62
3
100
AcDbVertex
100
AcDb2dVertex
10
3736.865
20
764.152
30
0.0
42
1.000
0
SEQEND
5
66c
100
AcDbEntity
  8
1-A寸法
0
LINE
5
66d
100
AcDbEntity
8
1-A寸法
6
CONTINUOUS
62
4
100
AcDbLine
10
3744.864551083591
20
1364.152098016629
30
0.0
11
3634.864551083591
21
1364.152098016629
31
0.0
0
LINE
5
66e
100
AcDbEntity
8
1-A寸法
6
CONTINUOUS
62
4
100
AcDbLine
10
3744.864551083591
20
764.152098016629
30
0.0
11
3634.864551083591
21
764.152098016629
31
0.0
0
LINE
5
66f
100
AcDbEntity
8
1-A寸法
6
CONTINUOUS
62
4
100
AcDbLine
10
3734.864551083591
20
1364.152098016629
30
0.0
11
3734.864551083591
21
764.152098016629
31
0.0
0
TEXT
5
670
100
AcDbEntity
8
1-A寸法
62
4
370
-3
100
AcDbText
10
3724.492
20
1032.452
30
0.0
40
29.453
41
0.541
50
90.000
1
６００
72
1
11
3727.765
21
1065.602
31
0.0
100
AcDbText
73
1
0
LINE
5
671
100
AcDbEntity
8
1-4取付位置
6
CENTER
62
4
100
AcDbLine
10
3634.864551083591
20
1344.152098016629
30
0.0
11
3562.864551083591
21
1344.152098016629
31
0.0
0
LINE
5
672
100
AcDbEntity
8
1-4取付位置
6
CENTER
62
4
100
AcDbLine
10
3634.864551083591
20
1064.152098016629
30
0.0
11
3562.864551083591
21
1064.152098016629
31
0.0
0
LINE
5
673
100
AcDbEntity
8
1-4取付位置
6
CENTER
62
4
100
AcDbLine
10
3634.864551083591
20
784.152098016629
30
0.0
11
3562.864551083591
21
784.152098016629
31
0.0
0
TEXT
5
674
100
AcDbEntity
8
1-A寸法
62
7
370
-3
100
AcDbText
10
3693.377
20
716.233
30
0.0
40
29.453
1
固定位置
41
0.636
50
0.000
100
AcDbText
0
LINE
5
675
100
AcDbEntity
8
F-F_J_ADD
6
HIDDEN
62
253
100
AcDbLine
10
3542.630193905817
20
1162.152098016629
30
0.0
11
3836.956371191136
21
1162.152098016629
31
0.0
0
LINE
5
676
100
AcDbEntity
8
F-F_J_ADD
6
HIDDEN
62
253
100
AcDbLine
10
3545.812800699810
20
966.152098016629
30
0.0
11
3711.443384028667
21
966.152098016629
31
0.0
0
LINE
5
677
100
AcDbEntity
8
F-F_J_ADD
6
HIDDEN
62
253
100
AcDbLine
10
3407.318127930264
20
770.152098016629
30
0.0
11
3609.424342105263
21
770.152098016629
31
0.0
0
LINE
5
678
100
AcDbEntity
8
F-F_J_ADD
6
HIDDEN
62
253
100
AcDbLine
10
1119.970159669963
20
714.152098016629
30
0.0
11
1870.970159669964
21
714.152098016629
31
0.0
0
LINE
5
679
100
AcDbEntity
8
F-F_J_ADD
6
HIDDEN
62
253
100
AcDbLine
10
1119.970159669963
20
664.152098016629
30
0.0
11
1870.970159669964
21
664.152098016629
31
0.0
0
POLYLINE
5
67a
100
AcDbEntity
  8
1-A寸法
6
CONTINUOUS
62
3
100
AcDb2dPolyline
66
1
10
0
20
0
70
1
40
4.000
41
4.000
0
VERTEX
5
67b
100
AcDbEntity
  8
1-A寸法
6
CONTINUOUS
62
3
100
AcDbVertex
100
AcDb2dVertex
10
3582.865
20
1464.152
30
0.0
42
1.000
0
VERTEX
5
67c
100
AcDbEntity
  8
1-A寸法
6
CONTINUOUS
62
3
100
AcDbVertex
100
AcDb2dVertex
10
3586.865
20
1464.152
30
0.0
42
1.000
0
SEQEND
5
67d
100
AcDbEntity
  8
1-A寸法
0
POLYLINE
5
67e
100
AcDbEntity
  8
1-A寸法
6
CONTINUOUS
62
3
100
AcDb2dPolyline
66
1
10
0
20
0
70
1
40
4.000
41
4.000
0
VERTEX
5
67f
100
AcDbEntity
  8
1-A寸法
6
CONTINUOUS
62
3
100
AcDbVertex
100
AcDb2dVertex
10
3232.865
20
1464.152
30
0.0
42
1.000
0
VERTEX
5
680
100
AcDbEntity
  8
1-A寸法
6
CONTINUOUS
62
3
100
AcDbVertex
100
AcDb2dVertex
10
3236.865
20
1464.152
30
0.0
42
1.000
0
SEQEND
5
681
100
AcDbEntity
  8
1-A寸法
0
LINE
5
682
100
AcDbEntity
8
1-A寸法
6
CONTINUOUS
62
4
100
AcDbLine
10
3584.864551083591
20
1464.152098016629
30
0.0
11
3234.864551083591
21
1464.152098016629
31
0.0
0
TEXT
5
683
100
AcDbEntity
8
1-A寸法
62
4
370
-3
100
AcDbText
10
3378.165
20
1474.525
30
0.0
40
29.453
41
0.541
50
0.000
1
３５０
72
1
11
3411.315
21
1471.252
31
0.0
100
AcDbText
73
1
0
LINE
5
684
100
AcDbEntity
8
1-A寸法
6
CONTINUOUS
62
4
100
AcDbLine
10
3234.864551083591
20
1474.152098016629
30
0.0
11
3234.864551083591
21
1414.152098016629
31
0.0
0
LINE
5
685
100
AcDbEntity
8
1-A寸法
6
CONTINUOUS
62
4
100
AcDbLine
10
3584.864551083591
20
1474.152098016629
30
0.0
11
3584.864551083591
21
1414.152098016629
31
0.0
0
LINE
5
686
100
AcDbEntity
8
F-F_J_ADD
6
HIDDEN
62
253
100
AcDbLine
10
3534.864551083591
20
1342.152098016629
30
0.0
11
3534.864551083591
21
1414.152098016629
31
0.0
0
LINE
5
687
100
AcDbEntity
8
F-F_J_ADD
6
HIDDEN
62
253
100
AcDbLine
10
3409.864551083591
20
1342.152098016629
30
0.0
11
3409.864551083591
21
1414.152098016629
31
0.0
0
LINE
5
688
100
AcDbEntity
8
F-F_J_ADD
6
HIDDEN
62
253
100
AcDbLine
10
3284.864551083591
20
1342.152098016629
30
0.0
11
3284.864551083591
21
1414.152098016629
31
0.0
0
LINE
5
689
100
AcDbEntity
8
1-A寸法
6
CONTINUOUS
62
7
100
AcDbLine
10
3684.864551083591
20
764.152098016629
30
0.0
11
3684.864551083591
21
688.920706371191
31
0.0
0
LINE
5
68a
100
AcDbEntity
8
1-A寸法
6
CONTINUOUS
62
7
100
AcDbLine
10
3684.864551083591
20
1364.152098016629
30
0.0
11
3684.864551083591
21
1420.254519609272
31
0.0
0
POLYLINE
5
68b
100
AcDbEntity
  8
1-A寸法
6
CONTINUOUS
62
3
100
AcDb2dPolyline
66
1
10
0
20
0
70
1
40
4.000
41
4.000
0
VERTEX
5
68c
100
AcDbEntity
  8
1-A寸法
6
CONTINUOUS
62
3
100
AcDbVertex
100
AcDb2dVertex
10
3682.865
20
1344.152
30
0.0
42
1.000
0
VERTEX
5
68d
100
AcDbEntity
  8
1-A寸法
6
CONTINUOUS
62
3
100
AcDbVertex
100
AcDb2dVertex
10
3686.865
20
1344.152
30
0.0
42
1.000
0
SEQEND
5
68e
100
AcDbEntity
  8
1-A寸法
0
POLYLINE
5
68f
100
AcDbEntity
  8
1-A寸法
6
CONTINUOUS
62
3
100
AcDb2dPolyline
66
1
10
0
20
0
70
1
40
4.000
41
4.000
0
VERTEX
5
690
100
AcDbEntity
  8
1-A寸法
6
CONTINUOUS
62
3
100
AcDbVertex
100
AcDb2dVertex
10
3682.865
20
1364.152
30
0.0
42
1.000
0
VERTEX
5
691
100
AcDbEntity
  8
1-A寸法
6
CONTINUOUS
62
3
100
AcDbVertex
100
AcDb2dVertex
10
3686.865
20
1364.152
30
0.0
42
1.000
0
SEQEND
5
692
100
AcDbEntity
  8
1-A寸法
0
LINE
5
693
100
AcDbEntity
8
1-A寸法
6
CONTINUOUS
62
4
100
AcDbLine
10
3694.864551083591
20
1344.152098016629
30
0.0
11
3634.864551083591
21
1344.152098016629
31
0.0
0
LINE
5
694
100
AcDbEntity
8
1-A寸法
6
CONTINUOUS
62
4
100
AcDbLine
10
3694.864551083591
20
1364.152107238770
30
0.0
11
3634.864551083591
21
1364.152107238770
31
0.0
0
LINE
5
695
100
AcDbEntity
8
1-A寸法
6
CONTINUOUS
62
4
100
AcDbLine
10
3684.864551083591
20
1344.152098016629
30
0.0
11
3684.864551083591
21
1364.152107238770
31
0.0
0
TEXT
5
696
100
AcDbEntity
8
1-A寸法
62
4
370
-3
100
AcDbText
10
3674.044
20
1371.173
30
0.0
40
29.453
41
0.541
50
90.000
1
２０
72
1
11
3677.317
21
1393.273
31
0.0
100
AcDbText
73
1
0
TEXT
5
697
100
AcDbEntity
8
1-A寸法
62
7
370
-3
100
AcDbText
10
3693.377
20
716.233
30
0.0
40
29.453
1
固定位置Ｂ
41
0.636
50
0.000
100
AcDbText
0
LINE
5
698
100
AcDbEntity
8
F-F_J_ADD
6
HIDDEN
62
253
100
AcDbLine
10
4010.513842105263
20
2543.103427172582
30
0.0
11
3025.512842105263
21
2543.103427172582
31
0.0
0
LINE
5
699
100
AcDbEntity
8
F-F_J_ADD
6
HIDDEN
62
253
100
AcDbLine
10
4010.513842105263
20
2683.103427172583
30
0.0
11
3025.512842105263
21
2683.103427172583
31
0.0
0
LINE
5
69a
100
AcDbEntity
8
E-0
6
CONTINUOUS
62
3
100
AcDbLine
10
4010.513842105263
20
2788.103427172583
30
0.0
11
3025.512842105263
21
2788.103427172583
31
0.0
0
LINE
5
69b
100
AcDbEntity
8
E-0
6
CONTINUOUS
62
7
100
AcDbLine
10
4010.513842105263
20
2578.103427172583
30
0.0
11
3025.512842105263
21
2578.103427172583
31
0.0
0
LINE
5
69c
100
AcDbEntity
8
E-0
6
CONTINUOUS
62
7
100
AcDbLine
10
4010.513842105263
20
2648.103427172583
30
0.0
11
3025.512842105263
21
2648.103427172583
31
0.0
0
LINE
5
69d
100
AcDbEntity
8
E-0
6
CONTINUOUS
62
7
100
AcDbLine
10
4010.513842105263
20
2718.103427172583
30
0.0
11
3025.512842105263
21
2718.103427172583
31
0.0
0
LINE
5
69e
100
AcDbEntity
8
E-0
6
CONTINUOUS
62
7
100
AcDbLine
10
4010.513842105263
20
2723.103427172583
30
0.0
11
3025.512842105263
21
2723.103427172583
31
0.0
0
LINE
5
69f
100
AcDbEntity
8
F-F_J_ADD
6
HIDDEN
62
253
100
AcDbLine
10
3025.512842105263
20
2755.603427172583
30
0.0
11
4010.513842105263
21
2755.603427172583
31
0.0
0
LINE
5
6a0
100
AcDbEntity
8
F-F_J_ADD
6
HIDDEN
62
253
100
AcDbLine
10
4010.513842105263
20
2613.103427172583
30
0.0
11
3025.512842105263
21
2613.103427172583
31
0.0
0
TEXT
5
6a1
100
AcDbEntity
8
E-0
62
7
370
-3
100
AcDbText
10
3424.413
20
2743.476
30
0.0
40
29.453
41
0.783
50
0.000
1
仕　　　　様
72
1
11
3519.013
21
2754.103
31
0.0
100
AcDbText
73
2
0
LINE
5
6a2
100
AcDbEntity
8
F-F_J_ADD
6
HIDDEN
62
253
100
AcDbLine
10
3518.013342105263
20
2723.103427172583
30
0.0
11
3518.013342105263
21
2788.103427172583
31
0.0
0
TEXT
5
6a3
100
AcDbEntity
8
E-0
62
7
370
-3
100
AcDbText
10
3351.913
20
2600.976
30
0.0
40
29.453
41
0.783
50
0.000
1
スチール製　黒色塗装
72
0
11
3350.513
21
2611.603
31
0.0
100
AcDbText
73
2
0
TEXT
5
6a4
100
AcDbEntity
8
E-0
62
7
370
-3
100
AcDbText
10
3113.913
20
2670.976
30
0.0
40
29.453
41
0.783
50
0.000
1
本　　体
72
0
11
3112.513
21
2681.603
31
0.0
100
AcDbText
73
2
0
TEXT
5
6a5
100
AcDbEntity
8
E-0
62
7
370
-3
100
AcDbText
10
3113.913
20
2600.976
30
0.0
40
29.453
1
網　　棚
41
0.783
50
0.000
100
AcDbText
0
TEXT
5
6a6
100
AcDbEntity
8
E-0
62
7
370
-3
100
AcDbText
10
3351.913
20
2670.976
30
0.0
40
29.453
41
0.783
50
0.000
1
スチール製　黒色塗装
72
0
11
3350.513
21
2681.603
31
0.0
100
AcDbText
73
2
0
LINE
5
6a7
100
AcDbEntity
8
F-F_J_ADD
6
HIDDEN
62
253
100
AcDbLine
10
4010.513842105263
20
2613.103427172583
30
0.0
11
3025.512842105263
21
2613.103427172583
31
0.0
0
LINE
5
6a8
100
AcDbEntity
8
E-0
6
CONTINUOUS
62
7
100
AcDbLine
10
4010.513842105263
20
2578.103427172583
30
0.0
11
3025.512842105263
21
2578.103427172583
31
0.0
0
LINE
5
6a9
100
AcDbEntity
8
E-0
6
CONTINUOUS
62
3
100
AcDbLine
10
4010.513842105263
20
2508.103427172582
30
0.0
11
3025.512842105263
21
2508.103427172582
31
0.0
0
LINE
5
6aa
100
AcDbEntity
8
F-F_J_ADD
6
HIDDEN
62
253
100
AcDbLine
10
4010.513842105263
20
2543.103427172582
30
0.0
11
3025.512842105263
21
2543.103427172582
31
0.0
0
TEXT
5
6ab
100
AcDbEntity
8
E-0
62
7
370
-3
100
AcDbText
10
3101.913
20
2533.476
30
0.0
40
29.453
41
0.783
50
0.000
1
そ　の　他
72
1
11
3180.513
21
2544.103
31
0.0
100
AcDbText
73
2
0
LINE
5
6ac
100
AcDbEntity
8
F-F_J_ADD
6
HIDDEN
62
253
100
AcDbLine
10
3350.512842105263
20
2718.103427172583
30
0.0
11
3350.512842105263
21
2508.103427172582
31
0.0
0
LINE
5
6ad
100
AcDbEntity
8
E-0
6
CONTINUOUS
62
7
100
AcDbLine
10
3325.512842105263
20
2718.103427172583
30
0.0
11
3325.512842105263
21
2508.103427172582
31
0.0
0
LINE
5
6ae
100
AcDbEntity
8
E-0
6
CONTINUOUS
62
3
100
AcDbLine
10
4010.513842105263
20
2508.103427172582
30
0.0
11
4010.513842105263
21
2788.103427172583
31
0.0
0
LINE
5
6af
100
AcDbEntity
8
E-0
6
CONTINUOUS
62
3
100
AcDbLine
10
3025.512842105263
20
2788.103427172583
30
0.0
11
3025.512842105263
21
2508.103427172582
31
0.0
0
LINE
5
6b0
100
AcDbEntity
8
F-F_J_ADD
6
HIDDEN
62
253
100
AcDbLine
10
3175.512842105263
20
2508.103427172582
30
0.0
11
3175.512842105263
21
2718.103427172583
31
0.0
0
TEXT
5
6b1
100
AcDbEntity
8
F-1
62
7
370
-3
100
AcDbText
10
2852.871
20
173.947
30
0.0
40
29.453
1
１／１０
41
0.636
50
0.000
100
AcDbText
0
LINE
5
6b2
100
AcDbEntity
8
F-F_J_ADD
6
HIDDEN
62
253
100
AcDbLine
10
957.970159669964
20
2445.646925785541
30
0.0
11
957.970159669964
21
2095.646925785541
31
0.0
0
LINE
5
6b3
100
AcDbEntity
8
F-F_J_ADD
6
HIDDEN
62
253
100
AcDbLine
10
907.970159669964
20
2445.646925785541
30
0.0
11
907.970159669964
21
2095.646925785541
31
0.0
0
LINE
5
6b4
100
AcDbEntity
8
F-F_J_ADD
6
HIDDEN
62
253
100
AcDbLine
10
857.970159669964
20
2445.646925785541
30
0.0
11
857.970159669964
21
2095.646925785541
31
0.0
0
LINE
5
6b5
100
AcDbEntity
8
F-F_J_ADD
6
HIDDEN
62
253
100
AcDbLine
10
807.970159669964
20
2445.646925785541
30
0.0
11
807.970159669964
21
2095.646925785541
31
0.0
0
LINE
5
6b6
100
AcDbEntity
8
F-F_J_ADD
6
HIDDEN
62
253
100
AcDbLine
10
1019.970159669963
20
1414.152098016629
30
0.0
11
1007.970159669964
21
1414.152098016629
31
0.0
0
LINE
5
6b7
100
AcDbEntity
8
F-F_J_ADD
6
HIDDEN
62
253
100
AcDbLine
10
1019.970159669963
20
1464.152098016629
30
0.0
11
1007.970159669964
21
1464.152098016629
31
0.0
0
LINE
5
6b8
100
AcDbEntity
8
F-F_J_ADD
6
HIDDEN
62
253
100
AcDbLine
10
1019.970159669963
20
1514.152098016629
30
0.0
11
1007.970159669964
21
1514.152098016629
31
0.0
0
LINE
5
6b9
100
AcDbEntity
8
F-F_J_ADD
6
HIDDEN
62
253
100
AcDbLine
10
1013.970159669964
20
1064.152098016629
30
0.0
11
1013.970159669964
21
1116.341551246537
31
0.0
0
LINE
5
6ba
100
AcDbEntity
8
F-F_J_ADD
6
HIDDEN
62
253
100
AcDbLine
10
1013.970159669964
20
1064.152098016629
30
0.0
11
992.791551246537
21
1064.152098016629
31
0.0
0
LINE
5
6bb
100
AcDbEntity
8
F-F_J_ADD
6
HIDDEN
62
253
100
AcDbLine
10
1945.970159669959
20
764.152098016629
30
0.0
11
1945.970159669959
21
1364.152098016629
31
0.0
0
LINE
5
6bc
100
AcDbEntity
8
F-F_J_ADD
6
HIDDEN
62
253
100
AcDbLine
10
1995.970159669959
20
764.152098016629
30
0.0
11
1995.970159669959
21
1364.152098016629
31
0.0
0
LINE
5
6bd
100
AcDbEntity
8
F-F_J_ADD
6
HIDDEN
62
253
100
AcDbLine
10
2045.970159669959
20
764.152098016629
30
0.0
11
2045.970159669959
21
1364.152098016629
31
0.0
0
LINE
5
6be
100
AcDbEntity
8
F-F_J_ADD
6
HIDDEN
62
253
100
AcDbLine
10
2095.970159669959
20
764.152098016629
30
0.0
11
2095.970159669959
21
1364.152098016629
31
0.0
0
TEXT
5
6bf
100
AcDbEntity
8
F-1
62
7
370
-3
100
AcDbText
10
3050.789
20
173.947
30
0.0
40
29.453
1
２０１８．１２．１０
41
0.636
50
0.000
100
AcDbText
0
CIRCLE
5
6c0
100
AcDbEntity
8
1-4取付位置
6
DOT
62
7
100
AcDbCircle
10
1320.970159669958
20
770.152098016629
30
0.0
40
3.500000000000
0
CIRCLE
5
6c1
100
AcDbEntity
8
1-4取付位置
6
DOT
62
7
100
AcDbCircle
10
1320.970159669958
20
966.152098016629
30
0.0
40
3.500000000000
0
CIRCLE
5
6c2
100
AcDbEntity
8
1-4取付位置
6
DOT
62
7
100
AcDbCircle
10
1320.970159669958
20
1162.152098016629
30
0.0
40
3.500000000000
0
LINE
5
6c3
100
AcDbEntity
8
1-4取付位置
6
CENTER
62
4
100
AcDbLine
10
1320.970159669958
20
2423.646925785541
30
0.0
11
1320.970159669958
21
2495.646925785541
31
0.0
0
POLYLINE
5
6c4
100
AcDbEntity
  8
1-A寸法
6
CONTINUOUS
62
3
100
AcDb2dPolyline
66
1
10
0
20
0
70
1
40
4.000
41
4.000
0
VERTEX
5
6c5
100
AcDbEntity
  8
1-A寸法
6
CONTINUOUS
62
3
100
AcDbVertex
100
AcDb2dVertex
10
1318.970
20
2545.647
30
0.0
42
1.000
0
VERTEX
5
6c6
100
AcDbEntity
  8
1-A寸法
6
CONTINUOUS
62
3
100
AcDbVertex
100
AcDb2dVertex
10
1322.970
20
2545.647
30
0.0
42
1.000
0
SEQEND
5
6c7
100
AcDbEntity
  8
1-A寸法
0
LINE
5
6c8
100
AcDbEntity
8
1-A寸法
6
CONTINUOUS
62
4
100
AcDbLine
10
1320.970159669958
20
2555.646925785541
30
0.0
11
1320.970159669958
21
2495.646925785541
31
0.0
0
LINE
5
6c9
100
AcDbEntity
8
1-A寸法
6
CONTINUOUS
62
4
100
AcDbLine
10
1126.970159669958
20
2605.646925785541
30
0.0
11
1126.970159669958
21
2495.646925785541
31
0.0
0
LINE
5
6ca
100
AcDbEntity
8
1-A寸法
6
CONTINUOUS
62
4
100
AcDbLine
10
1126.970159669958
20
2595.646925785541
30
0.0
11
1120.970159669958
21
2595.646925785541
31
0.0
0
TEXT
5
6cb
100
AcDbEntity
8
1-A寸法
62
4
370
-3
100
AcDbText
10
1093.368
20
2606.206
30
0.0
40
29.453
41
0.541
50
0.000
1
６
72
1
11
1104.418
21
2602.934
31
0.0
100
AcDbText
73
1
0
LINE
5
6cc
100
AcDbEntity
8
1-A寸法
6
CONTINUOUS
62
4
100
AcDbLine
10
1120.970159669958
20
2595.646925785541
30
0.0
11
1083.117532621373
21
2595.646925785541
31
0.0
0
POLYLINE
5
6cd
100
AcDbEntity
  8
1-A寸法
6
CONTINUOUS
62
3
100
AcDb2dPolyline
66
1
10
0
20
0
70
1
40
4.000
41
4.000
0
VERTEX
5
6ce
100
AcDbEntity
  8
1-A寸法
6
CONTINUOUS
62
3
100
AcDbVertex
100
AcDb2dVertex
10
1118.970
20
2595.647
30
0.0
42
1.000
0
VERTEX
5
6cf
100
AcDbEntity
  8
1-A寸法
6
CONTINUOUS
62
3
100
AcDbVertex
100
AcDb2dVertex
10
1122.970
20
2595.647
30
0.0
42
1.000
0
SEQEND
5
6d0
100
AcDbEntity
  8
1-A寸法
0
POLYLINE
5
6d1
100
AcDbEntity
  8
1-A寸法
6
CONTINUOUS
62
3
100
AcDb2dPolyline
66
1
10
0
20
0
70
1
40
4.000
41
4.000
0
VERTEX
5
6d2
100
AcDbEntity
  8
1-A寸法
6
CONTINUOUS
62
3
100
AcDbVertex
100
AcDb2dVertex
10
1124.970
20
2595.647
30
0.0
42
1.000
0
VERTEX
5
6d3
100
AcDbEntity
  8
1-A寸法
6
CONTINUOUS
62
3
100
AcDbVertex
100
AcDb2dVertex
10
1128.970
20
2595.647
30
0.0
42
1.000
0
SEQEND
5
6d4
100
AcDbEntity
  8
1-A寸法
0
LINE
5
6d5
100
AcDbEntity
8
1-A寸法
6
CONTINUOUS
62
4
100
AcDbLine
10
1120.970159669958
20
2555.646925785541
30
0.0
11
1120.970159669958
21
2495.646925785541
31
0.0
0
LINE
5
6d6
100
AcDbEntity
8
1-A寸法
6
CONTINUOUS
62
4
100
AcDbLine
10
1120.970159669958
20
2655.646925785541
30
0.0
11
1120.970159669958
21
2495.646925785541
31
0.0
0
LINE
5
6d7
100
AcDbEntity
8
1-4取付位置
6
CENTER
62
4
100
AcDbLine
10
1126.970159669958
20
2423.646925785541
30
0.0
11
1126.970159669958
21
2495.646925785541
31
0.0
0
LINE
5
6d8
100
AcDbEntity
8
1-A寸法
6
CONTINUOUS
62
4
100
AcDbLine
10
1020.970159669964
20
2445.646925785541
30
0.0
11
1020.970159669964
21
2095.646925785541
31
0.0
0
TEXT
5
6d9
100
AcDbEntity
8
1-A寸法
62
4
370
-3
100
AcDbText
10
1010.598
20
2238.947
30
0.0
40
29.453
41
0.541
50
90.000
1
３５０
72
1
11
1013.870
21
2272.097
31
0.0
100
AcDbText
73
1
0
LINE
5
6da
100
AcDbEntity
8
1-A寸法
6
CONTINUOUS
62
4
100
AcDbLine
10
1010.970159669964
20
2095.646925785541
30
0.0
11
1070.970159669964
21
2095.646925785541
31
0.0
0
LINE
5
6db
100
AcDbEntity
8
1-A寸法
6
CONTINUOUS
62
4
100
AcDbLine
10
1010.970159669964
20
2445.646925785541
30
0.0
11
1070.970159669964
21
2445.646925785541
31
0.0
0
POLYLINE
5
6dc
100
AcDbEntity
  8
1-A寸法
6
CONTINUOUS
62
3
100
AcDb2dPolyline
66
1
10
0
20
0
70
1
40
4.000
41
4.000
0
VERTEX
5
6dd
100
AcDbEntity
  8
1-A寸法
6
CONTINUOUS
62
3
100
AcDbVertex
100
AcDb2dVertex
10
1018.970
20
2095.647
30
0.0
42
1.000
0
VERTEX
5
6de
100
AcDbEntity
  8
1-A寸法
6
CONTINUOUS
62
3
100
AcDbVertex
100
AcDb2dVertex
10
1022.970
20
2095.647
30
0.0
42
1.000
0
SEQEND
5
6df
100
AcDbEntity
  8
1-A寸法
0
POLYLINE
5
6e0
100
AcDbEntity
  8
1-A寸法
6
CONTINUOUS
62
3
100
AcDb2dPolyline
66
1
10
0
20
0
70
1
40
4.000
41
4.000
0
VERTEX
5
6e1
100
AcDbEntity
  8
1-A寸法
6
CONTINUOUS
62
3
100
AcDbVertex
100
AcDb2dVertex
10
1018.970
20
2445.647
30
0.0
42
1.000
0
VERTEX
5
6e2
100
AcDbEntity
  8
1-A寸法
6
CONTINUOUS
62
3
100
AcDbVertex
100
AcDb2dVertex
10
1022.970
20
2445.647
30
0.0
42
1.000
0
SEQEND
5
6e3
100
AcDbEntity
  8
1-A寸法
0
LINE
5
6e4
100
AcDbEntity
8
F-F_J_ADD
6
HIDDEN
62
253
100
AcDbLine
10
1144.970159669958
20
2270.646925785541
30
0.0
11
1144.970159669958
21
2276.761625996942
31
0.0
0
LINE
5
6e5
100
AcDbEntity
8
F-F_J_ADD
6
HIDDEN
62
253
100
AcDbLine
10
1144.970159669958
20
2270.646925785541
30
0.0
11
1144.970159669958
21
2265.114990098852
31
0.0
0
CIRCLE
5
6e6
100
AcDbEntity
8
1-6
6
DOT
62
7
100
AcDbCircle
10
1144.970159669958
20
2270.646925785541
30
0.0
40
2.000000000000
0
LINE
5
6e7
100
AcDbEntity
8
F-F_J_ADD
6
HIDDEN
62
253
100
AcDbLine
10
1144.970159669958
20
2430.646925785541
30
0.0
11
1144.970159669958
21
2110.646925785541
31
0.0
0
LINE
5
6e8
100
AcDbEntity
8
1-6
6
CONTINUOUS
62
4
100
AcDbLine
10
1152.470159669958
20
2412.646925785541
30
0.0
11
1152.470159669958
21
2128.646925785541
31
0.0
0
LINE
5
6e9
100
AcDbEntity
8
1-6
6
CONTINUOUS
62
4
100
AcDbLine
10
1134.470159669958
20
2430.646925785541
30
0.0
11
1134.470159669958
21
2110.646925785541
31
0.0
0
CIRCLE
5
6ea
100
AcDbEntity
8
1-4取付位置
6
DOT
62
7
100
AcDbCircle
10
1126.970159669964
20
784.152098016629
30
0.0
40
3.500000000000
0
CIRCLE
5
6eb
100
AcDbEntity
8
1-4取付位置
6
DOT
62
7
100
AcDbCircle
10
1126.970159669964
20
1064.152098016629
30
0.0
40
3.500000000000
0
LINE
5
6ec
100
AcDbEntity
8
1-A寸法
6
CONTINUOUS
62
4
100
AcDbLine
10
1120.970159669964
20
1464.152098016629
30
0.0
11
1132.970159669964
21
1464.152098016629
31
0.0
0
TEXT
5
6ed
100
AcDbEntity
8
1-A寸法
62
4
370
-3
100
AcDbText
10
1078.418
20
1474.489
30
0.0
40
29.453
41
0.541
50
0.000
1
１２
72
1
11
1100.518
21
1471.216
31
0.0
100
AcDbText
73
1
0
LINE
5
6ee
100
AcDbEntity
8
1-A寸法
6
CONTINUOUS
62
4
100
AcDbLine
10
1120.970159669964
20
1464.152098016629
30
0.0
11
1074.748244479018
21
1464.152098016629
31
0.0
0
LINE
5
6ef
100
AcDbEntity
8
1-A寸法
6
CONTINUOUS
62
4
100
AcDbLine
10
1132.970159669964
20
1474.152098016629
30
0.0
11
1132.970159669964
21
1414.152098016629
31
0.0
0
LINE
5
6f0
100
AcDbEntity
8
1-A寸法
6
CONTINUOUS
62
4
100
AcDbLine
10
1120.970159669964
20
1474.152098016629
30
0.0
11
1120.970159669964
21
1414.152098016629
31
0.0
0
POLYLINE
5
6f1
100
AcDbEntity
  8
1-A寸法
6
CONTINUOUS
62
3
100
AcDb2dPolyline
66
1
10
0
20
0
70
1
40
4.000
41
4.000
0
VERTEX
5
6f2
100
AcDbEntity
  8
1-A寸法
6
CONTINUOUS
62
3
100
AcDbVertex
100
AcDb2dVertex
10
1130.970
20
1464.152
30
0.0
42
1.000
0
VERTEX
5
6f3
100
AcDbEntity
  8
1-A寸法
6
CONTINUOUS
62
3
100
AcDbVertex
100
AcDb2dVertex
10
1134.970
20
1464.152
30
0.0
42
1.000
0
SEQEND
5
6f4
100
AcDbEntity
  8
1-A寸法
0
POLYLINE
5
6f5
100
AcDbEntity
  8
1-A寸法
6
CONTINUOUS
62
3
100
AcDb2dPolyline
66
1
10
0
20
0
70
1
40
4.000
41
4.000
0
VERTEX
5
6f6
100
AcDbEntity
  8
1-A寸法
6
CONTINUOUS
62
3
100
AcDbVertex
100
AcDb2dVertex
10
1118.970
20
1464.152
30
0.0
42
1.000
0
VERTEX
5
6f7
100
AcDbEntity
  8
1-A寸法
6
CONTINUOUS
62
3
100
AcDbVertex
100
AcDb2dVertex
10
1122.970
20
1464.152
30
0.0
42
1.000
0
SEQEND
5
6f8
100
AcDbEntity
  8
1-A寸法
0
LINE
5
6f9
100
AcDbEntity
8
1-A寸法
6
CONTINUOUS
62
4
100
AcDbLine
10
1120.970159669964
20
1524.152098016629
30
0.0
11
1120.970159669964
21
1414.152098016629
31
0.0
0
POLYLINE
5
6fa
100
AcDbEntity
  8
1-A寸法
6
CONTINUOUS
62
3
100
AcDb2dPolyline
66
1
10
0
20
0
70
1
40
4.000
41
4.000
0
VERTEX
5
6fb
100
AcDbEntity
  8
1-A寸法
6
CONTINUOUS
62
3
100
AcDbVertex
100
AcDb2dVertex
10
1118.970
20
1514.152
30
0.0
42
1.000
0
VERTEX
5
6fc
100
AcDbEntity
  8
1-A寸法
6
CONTINUOUS
62
3
100
AcDbVertex
100
AcDb2dVertex
10
1122.970
20
1514.152
30
0.0
42
1.000
0
SEQEND
5
6fd
100
AcDbEntity
  8
1-A寸法
0
LINE
5
6fe
100
AcDbEntity
8
1-A寸法
6
CONTINUOUS
62
4
100
AcDbLine
10
1020.970159669964
20
1364.152098016629
30
0.0
11
1020.970159669964
21
764.152098016629
31
0.0
0
TEXT
5
6ff
100
AcDbEntity
8
1-A寸法
62
4
370
-3
100
AcDbText
10
1010.598
20
1032.452
30
0.0
40
29.453
41
0.541
50
90.000
1
６００
72
1
11
1013.870
21
1065.602
31
0.0
100
AcDbText
73
1
0
LINE
5
700
100
AcDbEntity
8
1-A寸法
6
CONTINUOUS
62
4
100
AcDbLine
10
1010.970159669964
20
764.152098016629
30
0.0
11
1070.970159669964
21
764.152098016629
31
0.0
0
LINE
5
701
100
AcDbEntity
8
1-A寸法
6
CONTINUOUS
62
4
100
AcDbLine
10
1010.970159669964
20
1364.152098016629
30
0.0
11
1070.970159669964
21
1364.152098016629
31
0.0
0
POLYLINE
5
702
100
AcDbEntity
  8
1-A寸法
6
CONTINUOUS
62
3
100
AcDb2dPolyline
66
1
10
0
20
0
70
1
40
4.000
41
4.000
0
VERTEX
5
703
100
AcDbEntity
  8
1-A寸法
6
CONTINUOUS
62
3
100
AcDbVertex
100
AcDb2dVertex
10
1018.970
20
764.152
30
0.0
42
1.000
0
VERTEX
5
704
100
AcDbEntity
  8
1-A寸法
6
CONTINUOUS
62
3
100
AcDbVertex
100
AcDb2dVertex
10
1022.970
20
764.152
30
0.0
42
1.000
0
SEQEND
5
705
100
AcDbEntity
  8
1-A寸法
0
POLYLINE
5
706
100
AcDbEntity
  8
1-A寸法
6
CONTINUOUS
62
3
100
AcDb2dPolyline
66
1
10
0
20
0
70
1
40
4.000
41
4.000
0
VERTEX
5
707
100
AcDbEntity
  8
1-A寸法
6
CONTINUOUS
62
3
100
AcDbVertex
100
AcDb2dVertex
10
1018.970
20
1364.152
30
0.0
42
1.000
0
VERTEX
5
708
100
AcDbEntity
  8
1-A寸法
6
CONTINUOUS
62
3
100
AcDbVertex
100
AcDb2dVertex
10
1022.970
20
1364.152
30
0.0
42
1.000
0
SEQEND
5
709
100
AcDbEntity
  8
1-A寸法
0
LINE
5
70a
100
AcDbEntity
8
1-5棚板受
6
CONTINUOUS
62
7
100
AcDbLine
10
1152.970159669964
20
960.152098016629
30
0.0
11
1132.970159669964
21
960.152098016629
31
0.0
0
LINE
5
70b
100
AcDbEntity
8
1-5棚板受
6
CONTINUOUS
62
7
100
AcDbLine
10
1132.970159669964
20
958.152098016629
30
0.0
11
1152.970159669964
21
958.152098016629
31
0.0
0
LINE
5
70c
100
AcDbEntity
8
1-5棚板受
6
CONTINUOUS
62
7
100
AcDbLine
10
1132.970159669964
20
1154.152098016629
30
0.0
11
1152.970159669964
21
1154.152098016629
31
0.0
0
LINE
5
70d
100
AcDbEntity
8
1-5棚板受
6
CONTINUOUS
62
7
100
AcDbLine
10
1132.970159669964
20
1156.152098016629
30
0.0
11
1152.970159669964
21
1156.152098016629
31
0.0
0
LINE
5
70e
100
AcDbEntity
8
1-5棚板受
6
CONTINUOUS
62
7
100
AcDbLine
10
1132.970159669964
20
1154.152098016629
30
0.0
11
1132.970159669964
21
1156.152098016629
31
0.0
0
LINE
5
70f
100
AcDbEntity
8
1-5棚板受
6
CONTINUOUS
62
7
100
AcDbLine
10
1132.970159669964
20
958.152098016629
30
0.0
11
1132.970159669964
21
960.152098016629
31
0.0
0
LINE
5
710
100
AcDbEntity
8
1-5棚板受
6
CONTINUOUS
62
7
100
AcDbLine
10
1152.970159669964
20
1154.152098016629
30
0.0
11
1152.970159669964
21
1156.152098016629
31
0.0
0
LINE
5
711
100
AcDbEntity
8
1-5棚板受
6
CONTINUOUS
62
7
100
AcDbLine
10
1152.970159669964
20
958.152098016629
30
0.0
11
1152.970159669964
21
960.152098016629
31
0.0
0
LINE
5
712
100
AcDbEntity
8
1-2前後フレーム
6
CONTINUOUS
62
4
100
AcDbLine
10
1132.970159669964
20
1168.152098016629
30
0.0
11
1132.970159669964
21
1156.152098016629
31
0.0
0
LINE
5
713
100
AcDbEntity
8
1-2前後フレーム
6
CONTINUOUS
62
4
100
AcDbLine
10
1132.970159669964
20
972.152098016629
30
0.0
11
1132.970159669964
21
960.152098016629
31
0.0
0
LINE
5
714
100
AcDbEntity
8
1-2前後フレーム
6
CONTINUOUS
62
4
100
AcDbLine
10
1132.970159669964
20
776.152098016629
30
0.0
11
1132.970159669964
21
764.152098016629
31
0.0
0
LINE
5
715
100
AcDbEntity
8
1-1左右フレーム
6
CONTINUOUS
62
4
100
AcDbLine
10
1120.970159669964
20
1364.152098016629
30
0.0
11
1120.970159669964
21
764.152098016629
31
0.0
0
LINE
5
716
100
AcDbEntity
8
1-1左右フレーム
6
CONTINUOUS
62
4
100
AcDbLine
10
1132.970159669964
20
1364.152098016629
30
0.0
11
1120.970159669964
21
1364.152098016629
31
0.0
0
LINE
5
717
100
AcDbEntity
8
1-1左右フレーム
6
CONTINUOUS
62
4
100
AcDbLine
10
1132.970159669964
20
764.152098016629
30
0.0
11
1132.970159669964
21
1364.152098016629
31
0.0
0
LINE
5
718
100
AcDbEntity
8
1-1左右フレーム
6
CONTINUOUS
62
4
100
AcDbLine
10
1120.970159669964
20
764.152098016629
30
0.0
11
1132.970159669964
21
764.152098016629
31
0.0
0
CIRCLE
5
719
100
AcDbEntity
8
1-4取付位置
6
DOT
62
7
100
AcDbCircle
10
1126.970159669964
20
1344.152098016629
30
0.0
40
3.500000000000
0
CIRCLE
5
71a
100
AcDbEntity
8
1-5棚板受
6
DOT
62
7
100
AcDbCircle
10
1144.970159669958
20
2390.646925785541
30
0.0
40
2.500000000000
0
CIRCLE
5
71b
100
AcDbEntity
8
1-5棚板受
6
DOT
62
7
100
AcDbCircle
10
1144.970159669958
20
2270.646925785541
30
0.0
40
2.500000000000
0
CIRCLE
5
71c
100
AcDbEntity
8
1-5棚板受
6
DOT
62
7
100
AcDbCircle
10
1144.970159669958
20
2150.646925785541
30
0.0
40
2.500000000000
0
LINE
5
71d
100
AcDbEntity
8
1-5棚板受
6
DOT
62
7
100
AcDbLine
10
1132.970159669958
20
2428.646925785541
30
0.0
11
1152.970159669958
21
2428.646925785541
31
0.0
0
LINE
5
71e
100
AcDbEntity
8
1-5棚板受
6
DOT
62
7
100
AcDbLine
10
1152.970159669958
20
2112.646925785541
30
0.0
11
1132.970159669958
21
2112.646925785541
31
0.0
0
LINE
5
71f
100
AcDbEntity
8
1-5棚板受
6
DOT
62
7
100
AcDbLine
10
1132.970159669958
20
2428.646925785541
30
0.0
11
1132.970159669958
21
2112.646925785541
31
0.0
0
LINE
5
720
100
AcDbEntity
8
1-5棚板受
6
DOT
62
7
100
AcDbLine
10
1152.970159669958
20
2112.646925785541
30
0.0
11
1152.970159669958
21
2428.646925785541
31
0.0
0
CIRCLE
5
721
100
AcDbEntity
8
1-1左右フレーム
6
CONTINUOUS
62
7
100
AcDbCircle
10
1126.970159669958
20
2395.646925785541
30
0.0
40
2.500000000000
0
CIRCLE
5
722
100
AcDbEntity
8
1-1左右フレーム
6
CONTINUOUS
62
7
100
AcDbCircle
10
1126.970159669958
20
2270.646925785541
30
0.0
40
2.500000000000
0
CIRCLE
5
723
100
AcDbEntity
8
1-1左右フレーム
6
CONTINUOUS
62
7
100
AcDbCircle
10
1126.970159669958
20
2145.646925785541
30
0.0
40
2.500000000000
0
LINE
5
724
100
AcDbEntity
8
1-1左右フレーム
6
CONTINUOUS
62
7
100
AcDbLine
10
1120.970159669958
20
2445.646925785541
30
0.0
11
1120.970159669958
21
2095.646925785541
31
0.0
0
LINE
5
725
100
AcDbEntity
8
1-1左右フレーム
6
CONTINUOUS
62
7
100
AcDbLine
10
1132.970159669958
20
2445.646925785541
30
0.0
11
1120.970159669958
21
2445.646925785541
31
0.0
0
LINE
5
726
100
AcDbEntity
8
1-1左右フレーム
6
CONTINUOUS
62
7
100
AcDbLine
10
1132.970159669958
20
2095.646925785541
30
0.0
11
1132.970159669958
21
2445.646925785541
31
0.0
0
LINE
5
727
100
AcDbEntity
8
1-1左右フレーム
6
CONTINUOUS
62
7
100
AcDbLine
10
1120.970159669958
20
2095.646925785541
30
0.0
11
1132.970159669958
21
2095.646925785541
31
0.0
0
LINE
5
728
100
AcDbEntity
8
1-2前後フレーム
6
CONTINUOUS
62
7
100
AcDbLine
10
1120.970159669958
20
2445.646925785541
30
0.0
11
1120.970159669958
21
2433.646925785541
31
0.0
0
LINE
5
729
100
AcDbEntity
8
1-2前後フレーム
6
CONTINUOUS
62
7
100
AcDbLine
10
1120.970159669958
20
2095.646925785541
30
0.0
11
1120.970159669958
21
2107.646925785541
31
0.0
0
POLYLINE
5
72a
100
AcDbEntity
  8
1-A寸法
6
CONTINUOUS
62
3
100
AcDb2dPolyline
66
1
10
0
20
0
70
1
40
4.000
41
4.000
0
VERTEX
5
72b
100
AcDbEntity
  8
1-A寸法
6
CONTINUOUS
62
3
100
AcDbVertex
100
AcDb2dVertex
10
1118.970
20
2645.647
30
0.0
42
1.000
0
VERTEX
5
72c
100
AcDbEntity
  8
1-A寸法
6
CONTINUOUS
62
3
100
AcDbVertex
100
AcDb2dVertex
10
1122.970
20
2645.647
30
0.0
42
1.000
0
SEQEND
5
72d
100
AcDbEntity
  8
1-A寸法
0
LINE
5
72e
100
AcDbEntity
8
1-1左右フレーム
6
CONTINUOUS
62
4
100
AcDbLine
10
1858.970159669959
20
1364.152098016629
30
0.0
11
1858.970159669959
21
764.152098016629
31
0.0
0
CIRCLE
5
72f
100
AcDbEntity
8
1-4取付位置
6
DOT
62
7
100
AcDbCircle
10
1670.970159669958
20
770.152098016629
30
0.0
40
3.500000000000
0
CIRCLE
5
730
100
AcDbEntity
8
1-4取付位置
6
DOT
62
7
100
AcDbCircle
10
1670.970159669958
20
966.152098016629
30
0.0
40
3.500000000000
0
CIRCLE
5
731
100
AcDbEntity
8
1-4取付位置
6
DOT
62
7
100
AcDbCircle
10
1670.970159669958
20
1162.152098016629
30
0.0
40
3.500000000000
0
LINE
5
732
100
AcDbEntity
8
1-7
6
CONTINUOUS
62
4
100
AcDbLine
10
1670.970159669958
20
2481.699394044321
30
0.0
11
1670.970159669958
21
2465.646925785541
31
0.0
0
LINE
5
733
100
AcDbEntity
8
F-F_J_ADD
6
HIDDEN
62
253
100
AcDbLine
10
2332.970159669964
20
2455.646925785541
30
0.0
11
1696.588920578802
21
2455.646925785541
31
0.0
0
LINE
5
734
100
AcDbEntity
8
1-4取付位置
6
CENTER
62
4
100
AcDbLine
10
1670.970159669958
20
2423.646925785541
30
0.0
11
1670.970159669958
21
2495.646925785541
31
0.0
0
POLYLINE
5
735
100
AcDbEntity
  8
1-A寸法
6
CONTINUOUS
62
3
100
AcDb2dPolyline
66
1
10
0
20
0
70
1
40
4.000
41
4.000
0
VERTEX
5
736
100
AcDbEntity
  8
1-A寸法
6
CONTINUOUS
62
3
100
AcDbVertex
100
AcDb2dVertex
10
1668.970
20
2545.647
30
0.0
42
1.000
0
VERTEX
5
737
100
AcDbEntity
  8
1-A寸法
6
CONTINUOUS
62
3
100
AcDbVertex
100
AcDb2dVertex
10
1672.970
20
2545.647
30
0.0
42
1.000
0
SEQEND
5
738
100
AcDbEntity
  8
1-A寸法
0
LINE
5
739
100
AcDbEntity
8
1-A寸法
6
CONTINUOUS
62
4
100
AcDbLine
10
1670.970159669958
20
2555.646925785541
30
0.0
11
1670.970159669958
21
2495.646925785541
31
0.0
0
LINE
5
73a
100
AcDbEntity
8
1-A寸法
6
CONTINUOUS
62
4
100
AcDbLine
10
1870.970159669959
20
2655.646925785541
30
0.0
11
1870.970159669959
21
2545.646925785541
31
0.0
0
POLYLINE
5
73b
100
AcDbEntity
  8
1-A寸法
6
CONTINUOUS
62
3
100
AcDb2dPolyline
66
1
10
0
20
0
70
1
40
4.000
41
4.000
0
VERTEX
5
73c
100
AcDbEntity
  8
1-A寸法
6
CONTINUOUS
62
3
100
AcDbVertex
100
AcDb2dVertex
10
1868.970
20
2645.647
30
0.0
42
1.000
0
VERTEX
5
73d
100
AcDbEntity
  8
1-A寸法
6
CONTINUOUS
62
3
100
AcDbVertex
100
AcDb2dVertex
10
1872.970
20
2645.647
30
0.0
42
1.000
0
SEQEND
5
73e
100
AcDbEntity
  8
1-A寸法
0
LINE
5
73f
100
AcDbEntity
8
1-A寸法
6
CONTINUOUS
62
4
100
AcDbLine
10
1980.970159669959
20
1364.152098016629
30
0.0
11
1920.970159669959
21
1364.152098016629
31
0.0
0
LINE
5
740
100
AcDbEntity
8
1-A寸法
6
CONTINUOUS
62
4
100
AcDbLine
10
1870.970159669959
20
1524.152098016629
30
0.0
11
1870.970159669959
21
1414.152098016629
31
0.0
0
LINE
5
741
100
AcDbEntity
8
1-1左右フレーム
6
CONTINUOUS
62
7
100
AcDbLine
10
1858.970159669959
20
2095.646925785541
30
0.0
11
1858.970159669959
21
2445.646925785541
31
0.0
0
LINE
5
742
100
AcDbEntity
8
1-1左右フレーム
6
CONTINUOUS
62
7
100
AcDbLine
10
1870.970159669959
20
2095.646925785541
30
0.0
11
1870.970159669959
21
2445.646925785541
31
0.0
0
LINE
5
743
100
AcDbEntity
8
1-1左右フレーム
6
CONTINUOUS
62
7
100
AcDbLine
10
1858.970159669959
20
2445.646925785541
30
0.0
11
1870.970159669959
21
2445.646925785541
31
0.0
0
LINE
5
744
100
AcDbEntity
8
1-1左右フレーム
6
CONTINUOUS
62
7
100
AcDbLine
10
1858.970159669959
20
2095.646925785541
30
0.0
11
1870.970159669959
21
2095.646925785541
31
0.0
0
CIRCLE
5
745
100
AcDbEntity
8
1-1左右フレーム
6
CONTINUOUS
62
7
100
AcDbCircle
10
1864.970159669959
20
2395.646925785541
30
0.0
40
2.500000000000
0
CIRCLE
5
746
100
AcDbEntity
8
1-1左右フレーム
6
CONTINUOUS
62
7
100
AcDbCircle
10
1864.970159669959
20
2270.646925785541
30
0.0
40
2.500000000000
0
CIRCLE
5
747
100
AcDbEntity
8
1-1左右フレーム
6
CONTINUOUS
62
7
100
AcDbCircle
10
1864.970159669959
20
2145.646925785541
30
0.0
40
2.500000000000
0
LINE
5
748
100
AcDbEntity
8
1-5棚板受
6
DOT
62
7
100
AcDbLine
10
1838.970159669959
20
2428.646925785541
30
0.0
11
1838.970159669959
21
2112.646925785541
31
0.0
0
LINE
5
749
100
AcDbEntity
8
1-5棚板受
6
DOT
62
7
100
AcDbLine
10
1870.970159669959
20
2428.646925785541
30
0.0
11
1870.970159669959
21
2112.646925785541
31
0.0
0
LINE
5
74a
100
AcDbEntity
8
1-5棚板受
6
DOT
62
7
100
AcDbLine
10
1858.970159669959
20
2112.646925785541
30
0.0
11
1858.970159669959
21
2428.646925785541
31
0.0
0
LINE
5
74b
100
AcDbEntity
8
1-5棚板受
6
DOT
62
7
100
AcDbLine
10
1858.970159669959
20
2112.646925785541
30
0.0
11
1838.970159669959
21
2112.646925785541
31
0.0
0
LINE
5
74c
100
AcDbEntity
8
1-5棚板受
6
DOT
62
7
100
AcDbLine
10
1838.970159669959
20
2428.646925785541
30
0.0
11
1858.970159669959
21
2428.646925785541
31
0.0
0
CIRCLE
5
74d
100
AcDbEntity
8
1-5棚板受
6
DOT
62
7
100
AcDbCircle
10
1846.970159669959
20
2150.646925785541
30
0.0
40
2.500000000000
0
CIRCLE
5
74e
100
AcDbEntity
8
1-5棚板受
6
DOT
62
7
100
AcDbCircle
10
1846.970159669959
20
2270.646925785541
30
0.0
40
2.500000000000
0
CIRCLE
5
74f
100
AcDbEntity
8
1-5棚板受
6
DOT
62
7
100
AcDbCircle
10
1846.970159669959
20
2390.646925785541
30
0.0
40
2.500000000000
0
POLYLINE
5
750
100
AcDbEntity
8
1-1左右フレーム
6
CONTINUOUS
62
  4
100
AcDb2dPolyline
66
1
10
0.0
20
0.0
30
0.0
70
0
0
VERTEX
5
751
100
AcDbEntity
8
1-1左右フレーム
6
CONTINUOUS
62
  4
100
AcDbVertex
100
AcDb2dVertex
10
1858.970159669959
20
764.152098016629
30
0.0
0
VERTEX
5
752
100
AcDbEntity
8
1-1左右フレーム
6
CONTINUOUS
62
  4
100
AcDbVertex
100
AcDb2dVertex
10
1870.970159669959
20
764.152098016629
30
0.0
0
VERTEX
5
753
100
AcDbEntity
8
1-1左右フレーム
6
CONTINUOUS
62
  4
100
AcDbVertex
100
AcDb2dVertex
10
1870.970159669959
20
1364.152098016629
30
0.0
0
VERTEX
5
754
100
AcDbEntity
8
1-1左右フレーム
6
CONTINUOUS
62
  4
100
AcDbVertex
100
AcDb2dVertex
10
1858.970159669959
20
1364.152098016629
30
0.0
0
SEQEND
5
755
100
AcDbEntity
8
1-1左右フレーム
0
LINE
5
756
100
AcDbEntity
8
1-2前後フレーム
6
CONTINUOUS
62
4
100
AcDbLine
10
1858.970159669959
20
1168.152098016629
30
0.0
11
1858.970159669959
21
1156.152098016629
31
0.0
0
LINE
5
757
100
AcDbEntity
8
1-2前後フレーム
6
CONTINUOUS
62
4
100
AcDbLine
10
1858.970159669959
20
972.152098016629
30
0.0
11
1858.970159669959
21
960.152098016629
31
0.0
0
LINE
5
758
100
AcDbEntity
8
1-2前後フレーム
6
CONTINUOUS
62
4
100
AcDbLine
10
1858.970159669959
20
776.152098016629
30
0.0
11
1858.970159669959
21
764.152098016629
31
0.0
0
LINE
5
759
100
AcDbEntity
8
1-5棚板受
6
CONTINUOUS
62
7
100
AcDbLine
10
1858.970159669959
20
958.152098016629
30
0.0
11
1858.970159669959
21
960.152098016629
31
0.0
0
LINE
5
75a
100
AcDbEntity
8
1-5棚板受
6
CONTINUOUS
62
7
100
AcDbLine
10
1858.970159669959
20
1154.152098016629
30
0.0
11
1858.970159669959
21
1156.152098016629
31
0.0
0
LINE
5
75b
100
AcDbEntity
8
1-5棚板受
6
CONTINUOUS
62
7
100
AcDbLine
10
1838.970159669959
20
958.152098016629
30
0.0
11
1838.970159669959
21
960.152098016629
31
0.0
0
POLYLINE
5
75c
100
AcDbEntity
8
1-5棚板受
6
CONTINUOUS
62
  7
100
AcDb2dPolyline
66
1
10
0.0
20
0.0
30
0.0
70
0
0
VERTEX
5
75d
100
AcDbEntity
8
1-5棚板受
6
CONTINUOUS
62
  7
100
AcDbVertex
100
AcDb2dVertex
10
1838.970159669959
20
1154.152098016629
30
0.0
0
VERTEX
5
75e
100
AcDbEntity
8
1-5棚板受
6
CONTINUOUS
62
  7
100
AcDbVertex
100
AcDb2dVertex
10
1838.970159669959
20
1156.152098016629
30
0.0
0
VERTEX
5
75f
100
AcDbEntity
8
1-5棚板受
6
CONTINUOUS
62
  7
100
AcDbVertex
100
AcDb2dVertex
10
1858.970159669959
20
1156.152098016629
30
0.0
0
SEQEND
5
760
100
AcDbEntity
8
1-5棚板受
0
LINE
5
761
100
AcDbEntity
8
1-5棚板受
6
CONTINUOUS
62
7
100
AcDbLine
10
1838.970159669959
20
1154.152098016629
30
0.0
11
1858.970159669959
21
1154.152098016629
31
0.0
0
LINE
5
762
100
AcDbEntity
8
1-5棚板受
6
CONTINUOUS
62
7
100
AcDbLine
10
1838.970159669959
20
958.152098016629
30
0.0
11
1858.970159669959
21
958.152098016629
31
0.0
0
LINE
5
763
100
AcDbEntity
8
1-5棚板受
6
CONTINUOUS
62
7
100
AcDbLine
10
1858.970159669959
20
960.152098016629
30
0.0
11
1838.970159669959
21
960.152098016629
31
0.0
0
POLYLINE
5
764
100
AcDbEntity
  8
1-A寸法
6
CONTINUOUS
62
3
100
AcDb2dPolyline
66
1
10
0
20
0
70
1
40
4.000
41
4.000
0
VERTEX
5
765
100
AcDbEntity
  8
1-A寸法
6
CONTINUOUS
62
3
100
AcDbVertex
100
AcDb2dVertex
10
1856.970
20
1464.152
30
0.0
42
1.000
0
VERTEX
5
766
100
AcDbEntity
  8
1-A寸法
6
CONTINUOUS
62
3
100
AcDbVertex
100
AcDb2dVertex
10
1860.970
20
1464.152
30
0.0
42
1.000
0
SEQEND
5
767
100
AcDbEntity
  8
1-A寸法
0
LINE
5
768
100
AcDbEntity
8
1-A寸法
6
CONTINUOUS
62
4
100
AcDbLine
10
1858.970159669959
20
1474.152098016629
30
0.0
11
1858.970159669959
21
1414.152098016629
31
0.0
0
POLYLINE
5
769
100
AcDbEntity
  8
1-A寸法
6
CONTINUOUS
62
3
100
AcDb2dPolyline
66
1
10
0
20
0
70
1
40
4.000
41
4.000
0
VERTEX
5
76a
100
AcDbEntity
  8
1-A寸法
6
CONTINUOUS
62
3
100
AcDbVertex
100
AcDb2dVertex
10
1868.970
20
1464.152
30
0.0
42
1.000
0
VERTEX
5
76b
100
AcDbEntity
  8
1-A寸法
6
CONTINUOUS
62
3
100
AcDbVertex
100
AcDb2dVertex
10
1872.970
20
1464.152
30
0.0
42
1.000
0
SEQEND
5
76c
100
AcDbEntity
  8
1-A寸法
0
LINE
5
76d
100
AcDbEntity
8
1-A寸法
6
CONTINUOUS
62
4
100
AcDbLine
10
1870.970159669959
20
1474.152098016629
30
0.0
11
1870.970159669959
21
1414.152098016629
31
0.0
0
LINE
5
76e
100
AcDbEntity
8
1-A寸法
6
CONTINUOUS
62
4
100
AcDbLine
10
1858.970159669959
20
1464.152098016629
30
0.0
11
1870.970159669959
21
1464.152098016629
31
0.0
0
TEXT
5
76f
100
AcDbEntity
8
1-A寸法
62
4
370
-3
100
AcDbText
10
1875.227
20
1474.316
30
0.0
40
29.453
41
0.541
50
0.000
1
１２
72
1
11
1897.327
21
1471.044
31
0.0
100
AcDbText
73
1
0
CIRCLE
5
770
100
AcDbEntity
8
1-4取付位置
6
DOT
62
7
100
AcDbCircle
10
1864.970159669959
20
784.152098016629
30
0.0
40
3.500000000000
0
CIRCLE
5
771
100
AcDbEntity
8
1-4取付位置
6
DOT
62
7
100
AcDbCircle
10
1864.970159669959
20
1064.152098016629
30
0.0
40
3.500000000000
0
CIRCLE
5
772
100
AcDbEntity
8
1-4取付位置
6
DOT
62
7
100
AcDbCircle
10
1864.970159669959
20
1344.152098016629
30
0.0
40
3.500000000000
0
POLYLINE
5
773
100
AcDbEntity
  8
1-A寸法
6
CONTINUOUS
62
3
100
AcDb2dPolyline
66
1
10
0
20
0
70
1
40
4.000
41
4.000
0
VERTEX
5
774
100
AcDbEntity
  8
1-A寸法
6
CONTINUOUS
62
3
100
AcDbVertex
100
AcDb2dVertex
10
1868.970
20
1514.152
30
0.0
42
1.000
0
VERTEX
5
775
100
AcDbEntity
  8
1-A寸法
6
CONTINUOUS
62
3
100
AcDbVertex
100
AcDb2dVertex
10
1872.970
20
1514.152
30
0.0
42
1.000
0
SEQEND
5
776
100
AcDbEntity
  8
1-A寸法
0
LINE
5
777
100
AcDbEntity
8
1-6
6
CONTINUOUS
62
7
100
AcDbLine
10
1857.470159669958
20
2430.646925785541
30
0.0
11
1857.470159669958
21
2110.646925785541
31
0.0
0
LINE
5
778
100
AcDbEntity
8
F-F_J_ADD
6
HIDDEN
62
253
100
AcDbLine
10
1846.970159669958
20
2270.646925785541
30
0.0
11
1846.970159669958
21
2264.693181461430
31
0.0
0
LINE
5
779
100
AcDbEntity
8
F-F_J_ADD
6
HIDDEN
62
253
100
AcDbLine
10
1846.970159669958
20
2270.646925785541
30
0.0
11
1846.970159669958
21
2273.732058591027
31
0.0
0
CIRCLE
5
77a
100
AcDbEntity
8
1-6
6
DOT
62
7
100
AcDbCircle
10
1846.970159669958
20
2270.646925785541
30
0.0
40
2.000000000000
0
LINE
5
77b
100
AcDbEntity
8
F-F_J_ADD
6
HIDDEN
62
253
100
AcDbLine
10
1846.970159669958
20
2110.646925785541
30
0.0
11
1846.970159669958
21
2430.646925785541
31
0.0
0
LINE
5
77c
100
AcDbEntity
8
1-6
6
CONTINUOUS
62
4
100
AcDbLine
10
1839.470159669958
20
2128.646925785541
30
0.0
11
1839.470159669958
21
2412.646925785541
31
0.0
0
LINE
5
77d
100
AcDbEntity
8
1-6
6
CONTINUOUS
62
4
100
AcDbLine
10
1857.470159669958
20
2110.646925785541
30
0.0
11
1857.470159669958
21
2430.646925785541
31
0.0
0
LINE
5
77e
100
AcDbEntity
8
F-F_J_ADD
6
HIDDEN
62
253
100
AcDbLine
10
1857.470159669958
20
2430.646925785541
30
0.0
11
1857.470159669958
21
2110.646925785541
31
0.0
0
LINE
5
77f
100
AcDbEntity
8
1-A寸法
6
CONTINUOUS
62
4
100
AcDbLine
10
1870.970159669959
20
1464.152098016629
30
0.0
11
1915.258298722481
21
1464.152098016629
31
0.0
0
POLYLINE
5
780
100
AcDbEntity
  8
1-A寸法
6
CONTINUOUS
62
3
100
AcDb2dPolyline
66
1
10
0
20
0
70
1
40
4.000
41
4.000
0
VERTEX
5
781
100
AcDbEntity
  8
1-A寸法
6
CONTINUOUS
62
3
100
AcDbVertex
100
AcDb2dVertex
10
1968.970
20
764.152
30
0.0
42
1.000
0
VERTEX
5
782
100
AcDbEntity
  8
1-A寸法
6
CONTINUOUS
62
3
100
AcDbVertex
100
AcDb2dVertex
10
1972.970
20
764.152
30
0.0
42
1.000
0
SEQEND
5
783
100
AcDbEntity
  8
1-A寸法
0
POLYLINE
5
784
100
AcDbEntity
  8
1-A寸法
6
CONTINUOUS
62
3
100
AcDb2dPolyline
66
1
10
0
20
0
70
1
40
4.000
41
4.000
0
VERTEX
5
785
100
AcDbEntity
  8
1-A寸法
6
CONTINUOUS
62
3
100
AcDbVertex
100
AcDb2dVertex
10
1968.970
20
770.152
30
0.0
42
1.000
0
VERTEX
5
786
100
AcDbEntity
  8
1-A寸法
6
CONTINUOUS
62
3
100
AcDbVertex
100
AcDb2dVertex
10
1972.970
20
770.152
30
0.0
42
1.000
0
SEQEND
5
787
100
AcDbEntity
  8
1-A寸法
0
LINE
5
788
100
AcDbEntity
8
1-A寸法
6
CONTINUOUS
62
4
100
AcDbLine
10
1980.970159669959
20
764.152098016629
30
0.0
11
1920.970159669959
21
764.152098016629
31
0.0
0
LINE
5
789
100
AcDbEntity
8
1-A寸法
6
CONTINUOUS
62
4
100
AcDbLine
10
1980.970159669959
20
770.152098016629
30
0.0
11
1920.970159669959
21
770.152098016629
31
0.0
0
POLYLINE
5
78a
100
AcDbEntity
  8
1-A寸法
6
CONTINUOUS
62
3
100
AcDb2dPolyline
66
1
10
0
20
0
70
1
40
4.000
41
4.000
0
VERTEX
5
78b
100
AcDbEntity
  8
1-A寸法
6
CONTINUOUS
62
3
100
AcDbVertex
100
AcDb2dVertex
10
1968.970
20
966.152
30
0.0
42
1.000
0
VERTEX
5
78c
100
AcDbEntity
  8
1-A寸法
6
CONTINUOUS
62
3
100
AcDbVertex
100
AcDb2dVertex
10
1972.970
20
966.152
30
0.0
42
1.000
0
SEQEND
5
78d
100
AcDbEntity
  8
1-A寸法
0
LINE
5
78e
100
AcDbEntity
8
1-A寸法
6
CONTINUOUS
62
4
100
AcDbLine
10
1980.970159669959
20
966.152098016629
30
0.0
11
1920.970159669959
21
966.152098016629
31
0.0
0
LINE
5
78f
100
AcDbEntity
8
1-A寸法
6
CONTINUOUS
62
4
100
AcDbLine
10
1970.970159669959
20
770.152098016629
30
0.0
11
1970.970159669959
21
966.152098016629
31
0.0
0
TEXT
5
790
100
AcDbEntity
8
1-A寸法
62
4
370
-3
100
AcDbText
10
1960.598
20
836.452
30
0.0
40
29.453
41
0.541
50
90.000
1
１９６
72
1
11
1963.870
21
869.602
31
0.0
100
AcDbText
73
1
0
POLYLINE
5
791
100
AcDbEntity
  8
1-A寸法
6
CONTINUOUS
62
3
100
AcDb2dPolyline
66
1
10
0
20
0
70
1
40
4.000
41
4.000
0
VERTEX
5
792
100
AcDbEntity
  8
1-A寸法
6
CONTINUOUS
62
3
100
AcDbVertex
100
AcDb2dVertex
10
1968.970
20
1162.152
30
0.0
42
1.000
0
VERTEX
5
793
100
AcDbEntity
  8
1-A寸法
6
CONTINUOUS
62
3
100
AcDbVertex
100
AcDb2dVertex
10
1972.970
20
1162.152
30
0.0
42
1.000
0
SEQEND
5
794
100
AcDbEntity
  8
1-A寸法
0
LINE
5
795
100
AcDbEntity
8
1-A寸法
6
CONTINUOUS
62
4
100
AcDbLine
10
1980.970159669959
20
1162.152098016629
30
0.0
11
1920.970159669959
21
1162.152098016629
31
0.0
0
LINE
5
796
100
AcDbEntity
8
1-A寸法
6
CONTINUOUS
62
4
100
AcDbLine
10
1970.970159669959
20
966.152098016629
30
0.0
11
1970.970159669959
21
1162.152098016629
31
0.0
0
TEXT
5
797
100
AcDbEntity
8
1-A寸法
62
4
370
-3
100
AcDbText
10
1960.598
20
1032.452
30
0.0
40
29.453
41
0.541
50
90.000
1
１９６
72
1
11
1963.870
21
1065.602
31
0.0
100
AcDbText
73
1
0
POLYLINE
5
798
100
AcDbEntity
  8
1-A寸法
6
CONTINUOUS
62
3
100
AcDb2dPolyline
66
1
10
0
20
0
70
1
40
4.000
41
4.000
0
VERTEX
5
799
100
AcDbEntity
  8
1-A寸法
6
CONTINUOUS
62
3
100
AcDbVertex
100
AcDb2dVertex
10
1968.970
20
1364.152
30
0.0
42
1.000
0
VERTEX
5
79a
100
AcDbEntity
  8
1-A寸法
6
CONTINUOUS
62
3
100
AcDbVertex
100
AcDb2dVertex
10
1972.970
20
1364.152
30
0.0
42
1.000
0
SEQEND
5
79b
100
AcDbEntity
  8
1-A寸法
0
LINE
5
79c
100
AcDbEntity
8
1-A寸法
6
CONTINUOUS
62
4
100
AcDbLine
10
1970.970159669959
20
764.152098016629
30
0.0
11
1970.970159669959
21
722.795983379501
31
0.0
0
LINE
5
79d
100
AcDbEntity
8
1-A寸法
6
CONTINUOUS
62
4
100
AcDbLine
10
1970.970159669959
20
1162.152098016629
30
0.0
11
1970.970159669959
21
1364.152098016629
31
0.0
0
TEXT
5
79e
100
AcDbEntity
8
1-A寸法
62
4
370
-3
100
AcDbText
10
1960.598
20
1231.452
30
0.0
40
29.453
41
0.541
50
90.000
1
２０２
72
1
11
1963.870
21
1264.602
31
0.0
100
AcDbText
73
1
0
LINE
5
79f
100
AcDbEntity
8
1-A寸法
6
CONTINUOUS
62
4
100
AcDbLine
10
1970.970159669959
20
764.152098016629
30
0.0
11
1970.970159669959
21
770.152098016629
31
0.0
0
TEXT
5
7a0
100
AcDbEntity
8
1-A寸法
62
4
370
-3
100
AcDbText
10
1959.943
20
728.442
30
0.0
40
29.453
41
0.541
50
90.000
1
６
72
1
11
1963.216
21
739.492
31
0.0
100
AcDbText
73
1
0
LINE
5
7a1
100
AcDbEntity
8
1-4取付位置
6
CENTER
62
4
100
AcDbLine
10
1920.970159669959
20
1162.152098016629
30
0.0
11
1848.970159669959
21
1162.152098016629
31
0.0
0
LINE
5
7a2
100
AcDbEntity
8
1-4取付位置
6
CENTER
62
4
100
AcDbLine
10
1920.970159669959
20
966.152098016629
30
0.0
11
1848.970159669959
21
966.152098016629
31
0.0
0
LINE
5
7a3
100
AcDbEntity
8
1-4取付位置
6
CENTER
62
4
100
AcDbLine
10
1920.970159669959
20
770.152098016629
30
0.0
11
1848.970159669959
21
770.152098016629
31
0.0
0
LINE
5
7a4
100
AcDbEntity
8
1-4取付位置
6
CENTER
62
4
100
AcDbLine
10
1864.970159669959
20
2421.223597645429
30
0.0
11
1864.970159669959
21
2512.467797783934
31
0.0
0
LINE
5
7a5
100
AcDbEntity
8
1-A寸法
6
CONTINUOUS
62
4
100
AcDbLine
10
1870.970159669959
20
2605.646925785541
30
0.0
11
1870.970159669959
21
2495.646925785541
31
0.0
0
LINE
5
7a6
100
AcDbEntity
8
1-A寸法
6
CONTINUOUS
62
4
100
AcDbLine
10
1870.970159669959
20
2555.646925785541
30
0.0
11
1870.970159669959
21
2495.646925785541
31
0.0
0
POLYLINE
5
7a7
100
AcDbEntity
  8
1-A寸法
6
CONTINUOUS
62
3
100
AcDb2dPolyline
66
1
10
0
20
0
70
1
40
4.000
41
4.000
0
VERTEX
5
7a8
100
AcDbEntity
  8
1-A寸法
6
CONTINUOUS
62
3
100
AcDbVertex
100
AcDb2dVertex
10
1868.970
20
2545.647
30
0.0
42
1.000
0
VERTEX
5
7a9
100
AcDbEntity
  8
1-A寸法
6
CONTINUOUS
62
3
100
AcDbVertex
100
AcDb2dVertex
10
1872.970
20
2545.647
30
0.0
42
1.000
0
SEQEND
5
7aa
100
AcDbEntity
  8
1-A寸法
0
POLYLINE
5
7ab
100
AcDbEntity
  8
1-A寸法
6
CONTINUOUS
62
3
100
AcDb2dPolyline
66
1
10
0
20
0
70
1
40
4.000
41
4.000
0
VERTEX
5
7ac
100
AcDbEntity
  8
1-A寸法
6
CONTINUOUS
62
3
100
AcDbVertex
100
AcDb2dVertex
10
1868.970
20
2595.647
30
0.0
42
1.000
0
VERTEX
5
7ad
100
AcDbEntity
  8
1-A寸法
6
CONTINUOUS
62
3
100
AcDbVertex
100
AcDb2dVertex
10
1872.970
20
2595.647
30
0.0
42
1.000
0
SEQEND
5
7ae
100
AcDbEntity
  8
1-A寸法
0
POLYLINE
5
7af
100
AcDbEntity
  8
1-A寸法
6
CONTINUOUS
62
3
100
AcDb2dPolyline
66
1
10
0
20
0
70
1
40
4.000
41
4.000
0
VERTEX
5
7b0
100
AcDbEntity
  8
1-A寸法
6
CONTINUOUS
62
3
100
AcDbVertex
100
AcDb2dVertex
10
1862.970
20
2595.647
30
0.0
42
1.000
0
VERTEX
5
7b1
100
AcDbEntity
  8
1-A寸法
6
CONTINUOUS
62
3
100
AcDbVertex
100
AcDb2dVertex
10
1866.970
20
2595.647
30
0.0
42
1.000
0
SEQEND
5
7b2
100
AcDbEntity
  8
1-A寸法
0
LINE
5
7b3
100
AcDbEntity
8
1-A寸法
6
CONTINUOUS
62
4
100
AcDbLine
10
1870.970159669959
20
2595.646925785541
30
0.0
11
1864.970159669959
21
2595.646925785541
31
0.0
0
TEXT
5
7b4
100
AcDbEntity
8
1-A寸法
62
4
370
-3
100
AcDbText
10
1837.374
20
2605.988
30
0.0
40
29.453
41
0.541
50
0.000
1
６
72
1
11
1848.424
21
2602.716
31
0.0
100
AcDbText
73
1
0
LINE
5
7b5
100
AcDbEntity
8
1-A寸法
6
CONTINUOUS
62
4
100
AcDbLine
10
1864.970159669959
20
2605.646925785541
30
0.0
11
1864.970159669959
21
2495.646925785541
31
0.0
0
TEXT
5
7b6
100
AcDbEntity
8
1-4取付位置
62
7
370
-3
100
AcDbText
10
1977.219
20
731.381
30
0.0
40
29.453
1
固定位置Ａ
41
0.636
50
0.000
100
AcDbText
0
LINE
5
7b7
100
AcDbEntity
8
1-A寸法
6
CONTINUOUS
62
7
100
AcDbLine
10
1870.970159669959
20
2595.646925785541
30
0.0
11
2005.353145905023
21
2595.646925785541
31
0.0
0
LINE
5
7b8
100
AcDbEntity
8
1-A寸法
6
CONTINUOUS
62
7
100
AcDbLine
10
1870.970159669959
20
2545.646925785541
30
0.0
11
2005.353145905023
21
2545.646925785541
31
0.0
0
LINE
5
7b9
100
AcDbEntity
8
1-A寸法
6
CONTINUOUS
62
4
100
AcDbLine
10
1870.970159669959
20
2545.646925785541
30
0.0
11
1670.970159669958
21
2545.646925785541
31
0.0
0
TEXT
5
7ba
100
AcDbEntity
8
1-A寸法
62
4
370
-3
100
AcDbText
10
1739.270
20
2556.019
30
0.0
40
29.453
41
0.541
50
0.000
1
２００
72
1
11
1772.420
21
2552.747
31
0.0
100
AcDbText
73
1
0
LINE
5
7bb
100
AcDbEntity
8
1-A寸法
6
CONTINUOUS
62
4
100
AcDbLine
10
1120.970159669958
20
2645.646925785541
30
0.0
11
1870.970159669959
21
2645.646925785541
31
0.0
0
TEXT
5
7bc
100
AcDbEntity
8
1-A寸法
62
4
370
-3
100
AcDbText
10
1464.270
20
2656.019
30
0.0
40
29.453
41
0.541
50
0.000
1
７５０
72
1
11
1497.420
21
2652.747
31
0.0
100
AcDbText
73
1
0
LINE
5
7bd
100
AcDbEntity
8
1-A寸法
6
CONTINUOUS
62
4
100
AcDbLine
10
1864.970159669959
20
2595.646925785541
30
0.0
11
1126.970159669958
21
2595.646925785541
31
0.0
0
TEXT
5
7be
100
AcDbEntity
8
1-A寸法
62
4
370
-3
100
AcDbText
10
1464.270
20
2606.019
30
0.0
40
29.453
41
0.541
50
0.000
1
７３８
72
1
11
1497.420
21
2602.747
31
0.0
100
AcDbText
73
1
0
LINE
5
7bf
100
AcDbEntity
8
1-A寸法
6
CONTINUOUS
62
4
100
AcDbLine
10
1670.970159669958
20
2545.646925785541
30
0.0
11
1320.970159669958
21
2545.646925785541
31
0.0
0
TEXT
5
7c0
100
AcDbEntity
8
1-A寸法
62
4
370
-3
100
AcDbText
10
1464.270
20
2556.019
30
0.0
40
29.453
41
0.541
50
0.000
1
３５０
72
1
11
1497.420
21
2552.747
31
0.0
100
AcDbText
73
1
0
LINE
5
7c1
100
AcDbEntity
8
1-2前後フレーム
6
CONTINUOUS
62
7
100
AcDbLine
10
1870.970159669959
20
2445.646925785541
30
0.0
11
1120.970159669958
21
2445.646925785541
31
0.0
0
LINE
5
7c2
100
AcDbEntity
8
1-2前後フレーム
6
CONTINUOUS
62
7
100
AcDbLine
10
1120.970159669958
20
2433.646925785541
30
0.0
11
1870.970159669959
21
2433.646925785541
31
0.0
0
LINE
5
7c3
100
AcDbEntity
8
1-6
6
CONTINUOUS
62
4
100
AcDbLine
10
1839.470159669958
20
2412.646925785541
30
0.0
11
1152.470159669958
21
2412.646925785541
31
0.0
0
LINE
5
7c4
100
AcDbEntity
8
1-6
6
CONTINUOUS
62
4
100
AcDbLine
10
1857.470159669958
20
2430.646925785541
30
0.0
11
1134.470159669958
21
2430.646925785541
31
0.0
0
LINE
5
7c5
100
AcDbEntity
8
1-6
6
CONTINUOUS
62
4
100
AcDbLine
10
1152.470159669958
20
2128.646925785541
30
0.0
11
1839.470159669958
21
2128.646925785541
31
0.0
0
LINE
5
7c6
100
AcDbEntity
8
1-6
6
CONTINUOUS
62
4
100
AcDbLine
10
1134.470159669958
20
2110.646925785541
30
0.0
11
1857.470159669958
21
2110.646925785541
31
0.0
0
LINE
5
7c7
100
AcDbEntity
8
1-2前後フレーム
6
CONTINUOUS
62
7
100
AcDbLine
10
1120.970159669958
20
2107.646925785541
30
0.0
11
1870.970159669959
21
2107.646925785541
31
0.0
0
LINE
5
7c8
100
AcDbEntity
8
1-2前後フレーム
6
CONTINUOUS
62
7
100
AcDbLine
10
1870.970159669959
20
2095.646925785541
30
0.0
11
1120.970159669958
21
2095.646925785541
31
0.0
0
LINE
5
7c9
100
AcDbEntity
8
1-A寸法
6
CONTINUOUS
62
4
100
AcDbLine
10
1120.970159669964
20
1514.152098016629
30
0.0
11
1870.970159669959
21
1514.152098016629
31
0.0
0
TEXT
5
7ca
100
AcDbEntity
8
1-A寸法
62
4
370
-3
100
AcDbText
10
1464.270
20
1524.525
30
0.0
40
29.453
41
0.541
50
0.000
1
７５０
72
1
11
1497.420
21
1521.252
31
0.0
100
AcDbText
73
1
0
LINE
5
7cb
100
AcDbEntity
8
1-A寸法
6
CONTINUOUS
62
4
100
AcDbLine
10
1132.970159669964
20
1464.152098016629
30
0.0
11
1858.970159669959
21
1464.152098016629
31
0.0
0
TEXT
5
7cc
100
AcDbEntity
8
1-A寸法
62
4
370
-3
100
AcDbText
10
1464.270
20
1474.525
30
0.0
40
29.453
41
0.541
50
0.000
1
７２６
72
1
11
1497.420
21
1471.252
31
0.0
100
AcDbText
73
1
0
LINE
5
7cd
100
AcDbEntity
8
1-2前後フレーム
6
CONTINUOUS
62
4
100
AcDbLine
10
1858.970159669959
20
776.152098016629
30
0.0
11
1132.970159669964
21
776.152098016629
31
0.0
0
LINE
5
7ce
100
AcDbEntity
8
1-2前後フレーム
6
CONTINUOUS
62
4
100
AcDbLine
10
1132.970159669964
20
764.152098016629
30
0.0
11
1870.970159669959
21
764.152098016629
31
0.0
0
LINE
5
7cf
100
AcDbEntity
8
1-2前後フレーム
6
CONTINUOUS
62
4
100
AcDbLine
10
1858.970159669959
20
1168.152098016629
30
0.0
11
1132.970159669964
21
1168.152098016629
31
0.0
0
LINE
5
7d0
100
AcDbEntity
8
1-2前後フレーム
6
CONTINUOUS
62
4
100
AcDbLine
10
1132.970159669964
20
1156.152098016629
30
0.0
11
1858.970159669959
21
1156.152098016629
31
0.0
0
LINE
5
7d1
100
AcDbEntity
8
1-2前後フレーム
6
CONTINUOUS
62
4
100
AcDbLine
10
1858.970159669959
20
972.152098016629
30
0.0
11
1132.970159669964
21
972.152098016629
31
0.0
0
LINE
5
7d2
100
AcDbEntity
8
1-2前後フレーム
6
CONTINUOUS
62
4
100
AcDbLine
10
1132.970159669964
20
960.152098016629
30
0.0
11
1858.970159669959
21
960.152098016629
31
0.0
0
MTEXT
5
7d3
100
AcDbEntity
8
F-1
62
7
370
-3
100
AcDbMText
10
1601.568
20
172.391
30
0.0
40
27.816
41
0.000
71
7
72
1
1
\W0.722;{\W0.520;[}ＳＯＵ{\W0.520;]}　吊戸棚　Ｌ＝７５０
7
STANDARD
11
1.00000
21
0.00000
31
0.0
0
LINE
5
7d4
100
AcDbEntity
8
1-6
6
CONTINUOUS
62
7
100
AcDbLine
10
1838.550245866755
20
2128.646925785543
30
0.0
11
1839.470159669956
21
2129.566839588744
31
0.0
0
LINE
5
7d5
100
AcDbEntity
8
1-6
6
CONTINUOUS
62
7
100
AcDbLine
10
1810.265974619305
20
2128.646925785542
30
0.0
11
1839.470159669958
21
2157.851110836195
31
0.0
0
LINE
5
7d6
100
AcDbEntity
8
1-6
6
CONTINUOUS
62
7
100
AcDbLine
10
1781.981703371841
20
2128.646925785544
30
0.0
11
1839.470159669955
21
2186.135382083658
31
0.0
0
LINE
5
7d7
100
AcDbEntity
8
1-6
6
CONTINUOUS
62
7
100
AcDbLine
10
1753.697432124376
20
2128.646925785546
30
0.0
11
1839.470159669953
21
2214.419653331123
31
0.0
0
LINE
5
7d8
100
AcDbEntity
8
1-6
6
CONTINUOUS
62
7
100
AcDbLine
10
1725.413160876907
20
2128.646925785544
30
0.0
11
1839.470159669957
21
2242.703924578593
31
0.0
0
LINE
5
7d9
100
AcDbEntity
8
1-6
6
CONTINUOUS
62
7
100
AcDbLine
10
1697.128889629457
20
2128.646925785542
30
0.0
11
1839.470159669958
21
2270.988195826043
31
0.0
0
LINE
5
7da
100
AcDbEntity
8
1-6
6
CONTINUOUS
62
7
100
AcDbLine
10
1668.844618381992
20
2128.646925785543
30
0.0
11
1839.470159669956
21
2299.272467073508
31
0.0
0
LINE
5
7db
100
AcDbEntity
8
1-6
6
CONTINUOUS
62
7
100
AcDbLine
10
1640.560347134524
20
2128.646925785542
30
0.0
11
1839.470159669959
21
2327.556738320977
31
0.0
0
LINE
5
7dc
100
AcDbEntity
8
1-6
6
CONTINUOUS
62
7
100
AcDbLine
10
1612.276075887079
20
2128.646925785546
30
0.0
11
1839.470159669956
21
2355.841009568422
31
0.0
0
LINE
5
7dd
100
AcDbEntity
8
1-6
6
CONTINUOUS
62
7
100
AcDbLine
10
1583.991804639609
20
2128.646925785543
30
0.0
11
1839.470159669959
21
2384.125280815892
31
0.0
0
LINE
5
7de
100
AcDbEntity
8
1-6
6
CONTINUOUS
62
7
100
AcDbLine
10
1555.707533392143
20
2128.646925785543
30
0.0
11
1839.470159669957
21
2412.409552063357
31
0.0
0
LINE
5
7df
100
AcDbEntity
8
1-6
6
CONTINUOUS
62
7
100
AcDbLine
10
1527.423262144676
20
2128.646925785542
30
0.0
11
1811.423262144673
21
2412.646925785540
31
0.0
0
LINE
5
7e0
100
AcDbEntity
8
1-6
6
CONTINUOUS
62
7
100
AcDbLine
10
1499.138990897226
20
2128.646925785542
30
0.0
11
1783.138990897228
21
2412.646925785544
31
0.0
0
LINE
5
7e1
100
AcDbEntity
8
1-6
6
CONTINUOUS
62
7
100
AcDbLine
10
1470.854719649759
20
2128.646925785541
30
0.0
11
1754.854719649758
21
2412.646925785540
31
0.0
0
LINE
5
7e2
100
AcDbEntity
8
1-6
6
CONTINUOUS
62
7
100
AcDbLine
10
1442.570448402294
20
2128.646925785543
30
0.0
11
1726.570448402294
21
2412.646925785542
31
0.0
0
LINE
5
7e3
100
AcDbEntity
8
1-6
6
CONTINUOUS
62
7
100
AcDbLine
10
1414.286177154828
20
2128.646925785543
30
0.0
11
1698.286177154825
21
2412.646925785541
31
0.0
0
LINE
5
7e4
100
AcDbEntity
8
1-6
6
CONTINUOUS
62
7
100
AcDbLine
10
1386.001905907378
20
2128.646925785542
30
0.0
11
1670.001905907380
21
2412.646925785544
31
0.0
0
LINE
5
7e5
100
AcDbEntity
8
1-6
6
CONTINUOUS
62
7
100
AcDbLine
10
1357.717634659910
20
2128.646925785541
30
0.0
11
1641.717634659909
21
2412.646925785540
31
0.0
0
LINE
5
7e6
100
AcDbEntity
8
1-6
6
CONTINUOUS
62
7
100
AcDbLine
10
1329.433363412446
20
2128.646925785543
30
0.0
11
1613.433363412445
21
2412.646925785542
31
0.0
0
LINE
5
7e7
100
AcDbEntity
8
1-6
6
CONTINUOUS
62
7
100
AcDbLine
10
1301.149092164980
20
2128.646925785544
30
0.0
11
1585.149092164977
21
2412.646925785541
31
0.0
0
LINE
5
7e8
100
AcDbEntity
8
1-6
6
CONTINUOUS
62
7
100
AcDbLine
10
1272.864820917530
20
2128.646925785542
30
0.0
11
1556.864820917533
21
2412.646925785545
31
0.0
0
LINE
5
7e9
100
AcDbEntity
8
1-6
6
CONTINUOUS
62
7
100
AcDbLine
10
1244.580549670061
20
2128.646925785541
30
0.0
11
1528.580549670061
21
2412.646925785540
31
0.0
0
LINE
5
7ea
100
AcDbEntity
8
1-6
6
CONTINUOUS
62
7
100
AcDbLine
10
1216.296278422597
20
2128.646925785542
30
0.0
11
1500.296278422596
21
2412.646925785542
31
0.0
0
LINE
5
7eb
100
AcDbEntity
8
1-6
6
CONTINUOUS
62
7
100
AcDbLine
10
1188.012007175132
20
2128.646925785545
30
0.0
11
1472.012007175129
21
2412.646925785542
31
0.0
0
LINE
5
7ec
100
AcDbEntity
8
1-6
6
CONTINUOUS
62
7
100
AcDbLine
10
1159.727735927682
20
2128.646925785543
30
0.0
11
1443.727735927680
21
2412.646925785541
31
0.0
0
LINE
5
7ed
100
AcDbEntity
8
1-6
6
CONTINUOUS
62
7
100
AcDbLine
10
1152.470159669959
20
2149.673620775287
30
0.0
11
1415.443464680212
21
2412.646925785540
31
0.0
0
LINE
5
7ee
100
AcDbEntity
8
1-6
6
CONTINUOUS
62
7
100
AcDbLine
10
1152.470159669957
20
2177.957892022751
30
0.0
11
1387.159193432746
21
2412.646925785540
31
0.0
0
LINE
5
7ef
100
AcDbEntity
8
1-6
6
CONTINUOUS
62
7
100
AcDbLine
10
1152.470159669954
20
2206.242163270206
30
0.0
11
1358.874922185291
21
2412.646925785543
31
0.0
0
LINE
5
7f0
100
AcDbEntity
8
1-6
6
CONTINUOUS
62
7
100
AcDbLine
10
1152.470159669957
20
2234.526434517666
30
0.0
11
1330.590650937832
21
2412.646925785541
31
0.0
0
LINE
5
7f1
100
AcDbEntity
8
1-6
6
CONTINUOUS
62
7
100
AcDbLine
10
1152.470159669960
20
2262.810705765136
30
0.0
11
1302.306379690363
21
2412.646925785539
31
0.0
0
LINE
5
7f2
100
AcDbEntity
8
1-6
6
CONTINUOUS
62
7
100
AcDbLine
10
1152.470159669957
20
2291.094977012600
30
0.0
11
1274.022108442898
21
2412.646925785541
31
0.0
0
LINE
5
7f3
100
AcDbEntity
8
1-6
6
CONTINUOUS
62
7
100
AcDbLine
10
1152.470159669954
20
2319.379248260045
30
0.0
11
1245.737837195453
21
2412.646925785544
31
0.0
0
LINE
5
7f4
100
AcDbEntity
8
1-6
6
CONTINUOUS
62
7
100
AcDbLine
10
1152.470159669962
20
2347.663519507521
30
0.0
11
1217.453565947979
21
2412.646925785537
31
0.0
0
LINE
5
7f5
100
AcDbEntity
8
1-6
6
CONTINUOUS
62
7
100
AcDbLine
10
1152.470159669960
20
2375.947790754985
30
0.0
11
1189.169294700514
21
2412.646925785539
31
0.0
0
LINE
5
7f6
100
AcDbEntity
8
1-6
6
CONTINUOUS
62
7
100
AcDbLine
10
1152.470159669958
20
2404.232062002449
30
0.0
11
1160.885023453050
21
2412.646925785542
31
0.0
0
LINE
5
7f7
100
AcDbEntity
8
1-6
6
CONTINUOUS
62
7
100
AcDbLine
10
1152.470159669957
20
2149.687127855431
30
0.0
11
1173.510361739848
21
2128.646925785540
31
0.0
0
LINE
5
7f8
100
AcDbEntity
8
1-6
6
CONTINUOUS
62
7
100
AcDbLine
10
1152.470159669956
20
2177.971399102880
30
0.0
11
1201.794632987298
21
2128.646925785538
31
0.0
0
LINE
5
7f9
100
AcDbEntity
8
1-6
6
CONTINUOUS
62
7
100
AcDbLine
10
1152.470159669957
20
2206.255670350345
30
0.0
11
1230.078904234763
21
2128.646925785540
31
0.0
0
LINE
5
7fa
100
AcDbEntity
8
1-6
6
CONTINUOUS
62
7
100
AcDbLine
10
1152.470159669960
20
2234.539941597810
30
0.0
11
1258.363175482227
21
2128.646925785542
31
0.0
0
LINE
5
7fb
100
AcDbEntity
8
1-6
6
CONTINUOUS
62
7
100
AcDbLine
10
1152.470159669957
20
2262.824212845280
30
0.0
11
1286.647446729696
21
2128.646925785540
31
0.0
0
LINE
5
7fc
100
AcDbEntity
8
1-6
6
CONTINUOUS
62
7
100
AcDbLine
10
1152.470159669955
20
2291.108484092730
30
0.0
11
1314.931717977146
21
2128.646925785539
31
0.0
0
LINE
5
7fd
100
AcDbEntity
8
1-6
6
CONTINUOUS
62
7
100
AcDbLine
10
1152.470159669957
20
2319.392755340195
30
0.0
11
1343.215989224612
21
2128.646925785540
31
0.0
0
LINE
5
7fe
100
AcDbEntity
8
1-6
6
CONTINUOUS
62
7
100
AcDbLine
10
1152.470159669959
20
2347.677026587659
30
0.0
11
1371.500260472076
21
2128.646925785542
31
0.0
0
LINE
5
7ff
100
AcDbEntity
8
1-6
6
CONTINUOUS
62
7
100
AcDbLine
10
1152.470159669956
20
2375.961297835129
30
0.0
11
1399.784531719544
21
2128.646925785541
31
0.0
0
LINE
5
800
100
AcDbEntity
8
1-6
6
CONTINUOUS
62
7
100
AcDbLine
10
1152.470159669954
20
2404.245569082579
30
0.0
11
1428.068802966994
21
2128.646925785540
31
0.0
0
LINE
5
801
100
AcDbEntity
8
1-6
6
CONTINUOUS
62
7
100
AcDbLine
10
1172.353074214461
20
2412.646925785539
30
0.0
11
1456.353074214460
21
2128.646925785540
31
0.0
0
LINE
5
802
100
AcDbEntity
8
1-6
6
CONTINUOUS
62
7
100
AcDbLine
10
1200.637345461930
20
2412.646925785537
30
0.0
11
1484.637345461928
21
2128.646925785539
31
0.0
0
LINE
5
803
100
AcDbEntity
8
1-6
6
CONTINUOUS
62
7
100
AcDbLine
10
1228.921616709375
20
2412.646925785540
30
0.0
11
1512.921616709372
21
2128.646925785543
31
0.0
0
LINE
5
804
100
AcDbEntity
8
1-6
6
CONTINUOUS
62
7
100
AcDbLine
10
1257.205887956844
20
2412.646925785537
30
0.0
11
1541.205887956842
21
2128.646925785540
31
0.0
0
LINE
5
805
100
AcDbEntity
8
1-6
6
CONTINUOUS
62
7
100
AcDbLine
10
1285.490159204310
20
2412.646925785539
30
0.0
11
1569.490159204309
21
2128.646925785539
31
0.0
0
LINE
5
806
100
AcDbEntity
8
1-6
6
CONTINUOUS
62
7
100
AcDbLine
10
1313.774430451778
20
2412.646925785537
30
0.0
11
1597.774430451775
21
2128.646925785540
31
0.0
0
LINE
5
807
100
AcDbEntity
8
1-6
6
CONTINUOUS
62
7
100
AcDbLine
10
1342.058701699223
20
2412.646925785541
30
0.0
11
1626.058701699225
21
2128.646925785538
31
0.0
0
LINE
5
808
100
AcDbEntity
8
1-6
6
CONTINUOUS
62
7
100
AcDbLine
10
1370.342972946694
20
2412.646925785537
30
0.0
11
1654.342972946693
21
2128.646925785537
31
0.0
0
LINE
5
809
100
AcDbEntity
8
1-6
6
CONTINUOUS
62
7
100
AcDbLine
10
1398.627244194158
20
2412.646925785539
30
0.0
11
1682.627244194158
21
2128.646925785539
31
0.0
0
LINE
5
80a
100
AcDbEntity
8
1-6
6
CONTINUOUS
62
7
100
AcDbLine
10
1426.911515441626
20
2412.646925785537
30
0.0
11
1710.911515441623
21
2128.646925785541
31
0.0
0
LINE
5
80b
100
AcDbEntity
8
1-6
6
CONTINUOUS
62
7
100
AcDbLine
10
1455.195786689071
20
2412.646925785542
30
0.0
11
1739.195786689073
21
2128.646925785539
31
0.0
0
LINE
5
80c
100
AcDbEntity
8
1-6
6
CONTINUOUS
62
7
100
AcDbLine
10
1483.480057936543
20
2412.646925785536
30
0.0
11
1767.480057936542
21
2128.646925785537
31
0.0
0
LINE
5
80d
100
AcDbEntity
8
1-6
6
CONTINUOUS
62
7
100
AcDbLine
10
1511.764329184007
20
2412.646925785538
30
0.0
11
1795.764329184007
21
2128.646925785539
31
0.0
0
LINE
5
80e
100
AcDbEntity
8
1-6
6
CONTINUOUS
62
7
100
AcDbLine
10
1540.048600431474
20
2412.646925785538
30
0.0
11
1824.048600431471
21
2128.646925785541
31
0.0
0
LINE
5
80f
100
AcDbEntity
8
1-6
6
CONTINUOUS
62
7
100
AcDbLine
10
1568.332871678919
20
2412.646925785542
30
0.0
11
1839.470159669957
21
2141.509637794504
31
0.0
0
LINE
5
810
100
AcDbEntity
8
1-6
6
CONTINUOUS
62
7
100
AcDbLine
10
1596.617142926391
20
2412.646925785536
30
0.0
11
1839.470159669954
21
2169.793909041974
31
0.0
0
LINE
5
811
100
AcDbEntity
8
1-6
6
CONTINUOUS
62
7
100
AcDbLine
10
1624.901414173856
20
2412.646925785538
30
0.0
11
1839.470159669956
21
2198.078180289438
31
0.0
0
LINE
5
812
100
AcDbEntity
8
1-6
6
CONTINUOUS
62
7
100
AcDbLine
10
1653.185685421322
20
2412.646925785539
30
0.0
11
1839.470159669958
21
2226.362451536902
31
0.0
0
LINE
5
813
100
AcDbEntity
8
1-6
6
CONTINUOUS
62
7
100
AcDbLine
10
1681.469956668772
20
2412.646925785537
30
0.0
11
1839.470159669957
21
2254.646722784353
31
0.0
0
LINE
5
814
100
AcDbEntity
8
1-6
6
CONTINUOUS
62
7
100
AcDbLine
10
1709.754227916240
20
2412.646925785536
30
0.0
11
1839.470159669953
21
2282.930994031823
31
0.0
0
LINE
5
815
100
AcDbEntity
8
1-6
6
CONTINUOUS
62
7
100
AcDbLine
10
1738.038499163705
20
2412.646925785537
30
0.0
11
1839.470159669955
21
2311.215265279288
31
0.0
0
LINE
5
816
100
AcDbEntity
8
1-6
6
CONTINUOUS
62
7
100
AcDbLine
10
1766.322770411150
20
2412.646925785541
30
0.0
11
1839.470159669959
21
2339.499536526732
31
0.0
0
LINE
5
817
100
AcDbEntity
8
1-6
6
CONTINUOUS
62
7
100
AcDbLine
10
1794.607041658619
20
2412.646925785538
30
0.0
11
1839.470159669956
21
2367.783807774202
31
0.0
0
LINE
5
818
100
AcDbEntity
8
1-6
6
CONTINUOUS
62
7
100
AcDbLine
10
1822.891312906089
20
2412.646925785535
30
0.0
11
1839.470159669953
21
2396.068079021672
31
0.0
0
TEXT
5
819
100
AcDbEntity
8
1-A寸法
62
7
370
-3
100
AcDbText
10
1877.693
20
2605.685
30
0.0
40
29.453
1
固定位置Ｂ
41
0.636
50
0.000
100
AcDbText
0
TEXT
5
81a
100
AcDbEntity
8
1-A寸法
62
7
370
-3
100
AcDbText
10
1877.693
20
2555.685
30
0.0
40
29.453
1
固定位置Ａ
41
0.636
50
0.000
100
AcDbText
0
LINE
5
81b
100
AcDbEntity
8
F-F_J_ADD
6
HIDDEN
62
253
100
AcDbLine
10
1320.970159669958
20
2423.646925785541
30
0.0
11
1320.970159669958
21
409.251968503937
31
0.0
0
LINE
5
81c
100
AcDbEntity
8
F-F_J_ADD
6
HIDDEN
62
253
100
AcDbLine
10
1670.970159669958
20
2423.646925785541
30
0.0
11
1670.970159669958
21
514.488188976378
31
0.0
0
LINE
5
81d
100
AcDbEntity
8
F-F_J_ADD
6
HIDDEN
62
253
100
AcDbLine
10
1126.970159669958
20
2423.646925785541
30
0.0
11
1126.970159669958
21
339.094488188976
31
0.0
0
LINE
5
81e
100
AcDbEntity
8
F-F_J_ADD
6
HIDDEN
62
253
100
AcDbLine
10
1864.970159669959
20
2421.223597645429
30
0.0
11
1864.970159669959
21
389.763779527559
31
0.0
0
LINE
5
81f
100
AcDbEntity
8
F-F_J_ADD
6
HIDDEN
62
253
100
AcDbLine
10
3562.864551083591
20
1344.152098016629
30
0.0
11
712.440944881890
21
1344.152098016629
31
0.0
0
LINE
5
820
100
AcDbEntity
8
F-F_J_ADD
6
HIDDEN
62
253
100
AcDbLine
10
3562.864551083591
20
1064.152098016629
30
0.0
11
899.527559055118
21
1064.152098016629
31
0.0
0
LINE
5
821
100
AcDbEntity
8
F-F_J_ADD
6
HIDDEN
62
253
100
AcDbLine
10
3562.864551083591
20
784.152098016629
30
0.0
11
778.700787401575
21
784.152098016629
31
0.0
0
CIRCLE
5
822
100
AcDbEntity
8
1-0
6
DOT
62
7
100
AcDbCircle
10
1126.970159669958
20
1344.152098016629
30
0.0
40
3.500000000000
0
CIRCLE
5
823
100
AcDbEntity
8
1-0
6
DOT
62
7
100
AcDbCircle
10
1126.970159669958
20
1344.152098016629
30
0.0
40
3.500000000000
0
CIRCLE
5
824
100
AcDbEntity
8
1-0
6
DOT
62
7
100
AcDbCircle
10
1126.970159669958
20
1344.152098016629
30
0.0
40
3.500000000000
0
LINE
5
825
100
AcDbEntity
8
F-F_J_ADD
6
HIDDEN
62
253
100
AcDbLine
10
1139.155540248089
20
1354.152098016629
30
0.0
11
1126.970159669958
21
1354.152098016629
31
0.0
0
LINE
5
826
100
AcDbEntity
8
F-F_J_ADD
6
HIDDEN
62
253
100
AcDbLine
10
1126.970159669958
20
1354.152098016629
30
0.0
11
1116.457568237972
21
1354.152098016629
31
0.0
0
LINE
5
827
100
AcDbEntity
8
F-F_J_ADD
6
HIDDEN
62
253
100
AcDbLine
10
1116.970159669958
20
1358.010985250317
30
0.0
11
1116.970159669958
21
1344.152098016629
31
0.0
0
LINE
5
828
100
AcDbEntity
8
F-F_J_ADD
6
HIDDEN
62
253
100
AcDbLine
10
1116.970159669958
20
1344.152098016629
30
0.0
11
1116.970159669958
21
1332.625095502160
31
0.0
0
LINE
5
829
100
AcDbEntity
8
F-F_J_ADD
6
HIDDEN
62
253
100
AcDbLine
10
1126.970159669958
20
1334.152098016629
30
0.0
11
1139.155540248089
21
1334.152098016629
31
0.0
0
LINE
5
82a
100
AcDbEntity
8
1-0
6
CENTER
62
7
100
AcDbLine
10
1126.970159669958
20
1344.152098016629
30
0.0
11
1136.970159669958
21
1344.152098016629
31
0.0
0
LINE
5
82b
100
AcDbEntity
8
1-0
6
CENTER
62
7
100
AcDbLine
10
1126.970159669958
20
1344.152098016629
30
0.0
11
1116.970159669958
21
1344.152098016629
31
0.0
0
LINE
5
82c
100
AcDbEntity
8
1-0
6
CENTER
62
7
100
AcDbLine
10
1126.970159669958
20
1344.152098016629
30
0.0
11
1126.970159669958
21
1334.152098016629
31
0.0
0
LINE
5
82d
100
AcDbEntity
8
1-0
6
CENTER
62
7
100
AcDbLine
10
1126.970159669958
20
1344.152098016629
30
0.0
11
1126.970159669958
21
1354.152098016629
31
0.0
0
LINE
5
82e
100
AcDbEntity
8
F-F_J_ADD
6
HIDDEN
62
253
100
AcDbLine
10
1848.970159669959
20
1162.152098016629
30
0.0
11
853.381578947368
21
1162.152098016629
31
0.0
0
LINE
5
82f
100
AcDbEntity
8
F-F_J_ADD
6
HIDDEN
62
253
100
AcDbLine
10
1848.970159669959
20
966.152098016629
30
0.0
11
927.631578947369
21
966.152098016629
31
0.0
0
CIRCLE
5
830
100
AcDbEntity
8
1-0
6
DOT
62
7
100
AcDbCircle
10
1126.970159669958
20
1064.152098016629
30
0.0
40
3.500000000000
0
CIRCLE
5
831
100
AcDbEntity
8
1-0
6
DOT
62
7
100
AcDbCircle
10
1126.970159669958
20
1064.152098016629
30
0.0
40
3.500000000000
0
CIRCLE
5
832
100
AcDbEntity
8
1-0
6
DOT
62
7
100
AcDbCircle
10
1126.970159669958
20
1064.152098016629
30
0.0
40
3.500000000000
0
LINE
5
833
100
AcDbEntity
8
F-F_J_ADD
6
HIDDEN
62
253
100
AcDbLine
10
1139.155540248089
20
1074.152098016629
30
0.0
11
1126.970159669958
21
1074.152098016629
31
0.0
0
LINE
5
834
100
AcDbEntity
8
F-F_J_ADD
6
HIDDEN
62
253
100
AcDbLine
10
1126.970159669958
20
1074.152098016629
30
0.0
11
1116.457568237972
21
1074.152098016629
31
0.0
0
LINE
5
835
100
AcDbEntity
8
F-F_J_ADD
6
HIDDEN
62
253
100
AcDbLine
10
1116.970159669958
20
1078.010985250317
30
0.0
11
1116.970159669958
21
1064.152098016629
31
0.0
0
LINE
5
836
100
AcDbEntity
8
F-F_J_ADD
6
HIDDEN
62
253
100
AcDbLine
10
1116.970159669958
20
1064.152098016629
30
0.0
11
1116.970159669958
21
1052.625095502160
31
0.0
0
LINE
5
837
100
AcDbEntity
8
F-F_J_ADD
6
HIDDEN
62
253
100
AcDbLine
10
1126.970159669958
20
1054.152098016629
30
0.0
11
1139.155540248089
21
1054.152098016629
31
0.0
0
LINE
5
838
100
AcDbEntity
8
1-0
6
CENTER
62
7
100
AcDbLine
10
1126.970159669958
20
1064.152098016629
30
0.0
11
1136.970159669958
21
1064.152098016629
31
0.0
0
LINE
5
839
100
AcDbEntity
8
1-0
6
CENTER
62
7
100
AcDbLine
10
1126.970159669958
20
1064.152098016629
30
0.0
11
1116.970159669958
21
1064.152098016629
31
0.0
0
LINE
5
83a
100
AcDbEntity
8
1-0
6
CENTER
62
7
100
AcDbLine
10
1126.970159669958
20
1064.152098016629
30
0.0
11
1126.970159669958
21
1054.152098016629
31
0.0
0
LINE
5
83b
100
AcDbEntity
8
1-0
6
CENTER
62
7
100
AcDbLine
10
1126.970159669958
20
1064.152098016629
30
0.0
11
1126.970159669958
21
1074.152098016629
31
0.0
0
CIRCLE
5
83c
100
AcDbEntity
8
1-0
6
DOT
62
7
100
AcDbCircle
10
1126.970159669958
20
784.152098016629
30
0.0
40
3.500000000000
0
CIRCLE
5
83d
100
AcDbEntity
8
1-0
6
DOT
62
7
100
AcDbCircle
10
1126.970159669958
20
784.152098016629
30
0.0
40
3.500000000000
0
CIRCLE
5
83e
100
AcDbEntity
8
1-0
6
DOT
62
7
100
AcDbCircle
10
1126.970159669958
20
784.152098016629
30
0.0
40
3.500000000000
0
LINE
5
83f
100
AcDbEntity
8
F-F_J_ADD
6
HIDDEN
62
253
100
AcDbLine
10
1139.155540248089
20
794.152098016629
30
0.0
11
1126.970159669958
21
794.152098016629
31
0.0
0
LINE
5
840
100
AcDbEntity
8
F-F_J_ADD
6
HIDDEN
62
253
100
AcDbLine
10
1126.970159669958
20
794.152098016629
30
0.0
11
1116.457568237972
21
794.152098016629
31
0.0
0
LINE
5
841
100
AcDbEntity
8
F-F_J_ADD
6
HIDDEN
62
253
100
AcDbLine
10
1116.970159669958
20
798.010985250317
30
0.0
11
1116.970159669958
21
784.152098016629
31
0.0
0
LINE
5
842
100
AcDbEntity
8
F-F_J_ADD
6
HIDDEN
62
253
100
AcDbLine
10
1116.970159669958
20
784.152098016629
30
0.0
11
1116.970159669958
21
772.625095502160
31
0.0
0
LINE
5
843
100
AcDbEntity
8
F-F_J_ADD
6
HIDDEN
62
253
100
AcDbLine
10
1126.970159669958
20
774.152098016629
30
0.0
11
1139.155540248089
21
774.152098016629
31
0.0
0
LINE
5
844
100
AcDbEntity
8
1-0
6
CENTER
62
7
100
AcDbLine
10
1126.970159669958
20
784.152098016629
30
0.0
11
1136.970159669958
21
784.152098016629
31
0.0
0
LINE
5
845
100
AcDbEntity
8
1-0
6
CENTER
62
7
100
AcDbLine
10
1126.970159669958
20
784.152098016629
30
0.0
11
1116.970159669958
21
784.152098016629
31
0.0
0
LINE
5
846
100
AcDbEntity
8
1-0
6
CENTER
62
7
100
AcDbLine
10
1126.970159669958
20
784.152098016629
30
0.0
11
1126.970159669958
21
774.152098016629
31
0.0
0
LINE
5
847
100
AcDbEntity
8
1-0
6
CENTER
62
7
100
AcDbLine
10
1126.970159669958
20
784.152098016629
30
0.0
11
1126.970159669958
21
794.152098016629
31
0.0
0
LINE
5
848
100
AcDbEntity
8
F-F_J_ADD
6
HIDDEN
62
253
100
AcDbLine
10
1848.970159669959
20
770.152098016629
30
0.0
11
1107.394736842105
21
770.152098016629
31
0.0
0
CIRCLE
5
849
100
AcDbEntity
8
1-0
6
DOT
62
7
100
AcDbCircle
10
1320.970159669958
20
770.152098016629
30
0.0
40
3.500000000000
0
CIRCLE
5
84a
100
AcDbEntity
8
1-0
6
DOT
62
7
100
AcDbCircle
10
1320.970159669958
20
770.152098016629
30
0.0
40
3.500000000000
0
CIRCLE
5
84b
100
AcDbEntity
8
1-0
6
DOT
62
7
100
AcDbCircle
10
1320.970159669958
20
770.152098016629
30
0.0
40
3.500000000000
0
LINE
5
84c
100
AcDbEntity
8
F-F_J_ADD
6
HIDDEN
62
253
100
AcDbLine
10
1333.155540248089
20
780.152098016629
30
0.0
11
1320.970159669958
21
780.152098016629
31
0.0
0
LINE
5
84d
100
AcDbEntity
8
F-F_J_ADD
6
HIDDEN
62
253
100
AcDbLine
10
1320.970159669958
20
780.152098016629
30
0.0
11
1310.457568237971
21
780.152098016629
31
0.0
0
LINE
5
84e
100
AcDbEntity
8
F-F_J_ADD
6
HIDDEN
62
253
100
AcDbLine
10
1310.970159669958
20
784.010985250317
30
0.0
11
1310.970159669958
21
770.152098016629
31
0.0
0
LINE
5
84f
100
AcDbEntity
8
F-F_J_ADD
6
HIDDEN
62
253
100
AcDbLine
10
1310.970159669958
20
770.152098016629
30
0.0
11
1310.970159669958
21
758.625095502160
31
0.0
0
LINE
5
850
100
AcDbEntity
8
F-F_J_ADD
6
HIDDEN
62
253
100
AcDbLine
10
1320.970159669958
20
760.152098016629
30
0.0
11
1333.155540248089
21
760.152098016629
31
0.0
0
LINE
5
851
100
AcDbEntity
8
1-0
6
CENTER
62
7
100
AcDbLine
10
1320.970159669958
20
770.152098016629
30
0.0
11
1330.970159669958
21
770.152098016629
31
0.0
0
LINE
5
852
100
AcDbEntity
8
1-0
6
CENTER
62
7
100
AcDbLine
10
1320.970159669958
20
770.152098016629
30
0.0
11
1310.970159669958
21
770.152098016629
31
0.0
0
LINE
5
853
100
AcDbEntity
8
1-0
6
CENTER
62
7
100
AcDbLine
10
1320.970159669958
20
770.152098016629
30
0.0
11
1320.970159669958
21
760.152098016629
31
0.0
0
LINE
5
854
100
AcDbEntity
8
1-0
6
CENTER
62
7
100
AcDbLine
10
1320.970159669958
20
770.152098016629
30
0.0
11
1320.970159669958
21
780.152098016629
31
0.0
0
CIRCLE
5
855
100
AcDbEntity
8
1-0
6
DOT
62
7
100
AcDbCircle
10
1320.970159669958
20
966.152098016629
30
0.0
40
3.500000000000
0
CIRCLE
5
856
100
AcDbEntity
8
1-0
6
DOT
62
7
100
AcDbCircle
10
1320.970159669958
20
966.152098016629
30
0.0
40
3.500000000000
0
CIRCLE
5
857
100
AcDbEntity
8
1-0
6
DOT
62
7
100
AcDbCircle
10
1320.970159669958
20
966.152098016629
30
0.0
40
3.500000000000
0
LINE
5
858
100
AcDbEntity
8
F-F_J_ADD
6
HIDDEN
62
253
100
AcDbLine
10
1333.155540248089
20
976.152098016629
30
0.0
11
1320.970159669958
21
976.152098016629
31
0.0
0
LINE
5
859
100
AcDbEntity
8
F-F_J_ADD
6
HIDDEN
62
253
100
AcDbLine
10
1320.970159669958
20
976.152098016629
30
0.0
11
1310.457568237971
21
976.152098016629
31
0.0
0
LINE
5
85a
100
AcDbEntity
8
F-F_J_ADD
6
HIDDEN
62
253
100
AcDbLine
10
1310.970159669958
20
980.010985250317
30
0.0
11
1310.970159669958
21
966.152098016629
31
0.0
0
LINE
5
85b
100
AcDbEntity
8
F-F_J_ADD
6
HIDDEN
62
253
100
AcDbLine
10
1310.970159669958
20
966.152098016629
30
0.0
11
1310.970159669958
21
954.625095502160
31
0.0
0
LINE
5
85c
100
AcDbEntity
8
F-F_J_ADD
6
HIDDEN
62
253
100
AcDbLine
10
1320.970159669958
20
956.152098016629
30
0.0
11
1333.155540248089
21
956.152098016629
31
0.0
0
LINE
5
85d
100
AcDbEntity
8
1-0
6
CENTER
62
7
100
AcDbLine
10
1320.970159669958
20
966.152098016629
30
0.0
11
1330.970159669958
21
966.152098016629
31
0.0
0
LINE
5
85e
100
AcDbEntity
8
1-0
6
CENTER
62
7
100
AcDbLine
10
1320.970159669958
20
966.152098016629
30
0.0
11
1310.970159669958
21
966.152098016629
31
0.0
0
LINE
5
85f
100
AcDbEntity
8
1-0
6
CENTER
62
7
100
AcDbLine
10
1320.970159669958
20
966.152098016629
30
0.0
11
1320.970159669958
21
956.152098016629
31
0.0
0
LINE
5
860
100
AcDbEntity
8
1-0
6
CENTER
62
7
100
AcDbLine
10
1320.970159669958
20
966.152098016629
30
0.0
11
1320.970159669958
21
976.152098016629
31
0.0
0
CIRCLE
5
861
100
AcDbEntity
8
1-0
6
DOT
62
7
100
AcDbCircle
10
1320.970159669958
20
1162.152098016629
30
0.0
40
3.500000000000
0
CIRCLE
5
862
100
AcDbEntity
8
1-0
6
DOT
62
7
100
AcDbCircle
10
1320.970159669958
20
1162.152098016629
30
0.0
40
3.500000000000
0
CIRCLE
5
863
100
AcDbEntity
8
1-0
6
DOT
62
7
100
AcDbCircle
10
1320.970159669958
20
1162.152098016629
30
0.0
40
3.500000000000
0
LINE
5
864
100
AcDbEntity
8
F-F_J_ADD
6
HIDDEN
62
253
100
AcDbLine
10
1333.155540248089
20
1172.152098016629
30
0.0
11
1320.970159669958
21
1172.152098016629
31
0.0
0
LINE
5
865
100
AcDbEntity
8
F-F_J_ADD
6
HIDDEN
62
253
100
AcDbLine
10
1320.970159669958
20
1172.152098016629
30
0.0
11
1310.457568237971
21
1172.152098016629
31
0.0
0
LINE
5
866
100
AcDbEntity
8
F-F_J_ADD
6
HIDDEN
62
253
100
AcDbLine
10
1310.970159669958
20
1176.010985250317
30
0.0
11
1310.970159669958
21
1162.152098016629
31
0.0
0
LINE
5
867
100
AcDbEntity
8
F-F_J_ADD
6
HIDDEN
62
253
100
AcDbLine
10
1310.970159669958
20
1162.152098016629
30
0.0
11
1310.970159669958
21
1150.625095502160
31
0.0
0
LINE
5
868
100
AcDbEntity
8
F-F_J_ADD
6
HIDDEN
62
253
100
AcDbLine
10
1320.970159669958
20
1152.152098016629
30
0.0
11
1333.155540248089
21
1152.152098016629
31
0.0
0
LINE
5
869
100
AcDbEntity
8
1-0
6
CENTER
62
7
100
AcDbLine
10
1320.970159669958
20
1162.152098016629
30
0.0
11
1330.970159669958
21
1162.152098016629
31
0.0
0
LINE
5
86a
100
AcDbEntity
8
1-0
6
CENTER
62
7
100
AcDbLine
10
1320.970159669958
20
1162.152098016629
30
0.0
11
1310.970159669958
21
1162.152098016629
31
0.0
0
LINE
5
86b
100
AcDbEntity
8
1-0
6
CENTER
62
7
100
AcDbLine
10
1320.970159669958
20
1162.152098016629
30
0.0
11
1320.970159669958
21
1152.152098016629
31
0.0
0
LINE
5
86c
100
AcDbEntity
8
1-0
6
CENTER
62
7
100
AcDbLine
10
1320.970159669958
20
1162.152098016629
30
0.0
11
1320.970159669958
21
1172.152098016629
31
0.0
0
CIRCLE
5
86d
100
AcDbEntity
8
1-0
6
DOT
62
7
100
AcDbCircle
10
1670.970159669958
20
1162.152098016629
30
0.0
40
3.500000000000
0
CIRCLE
5
86e
100
AcDbEntity
8
1-0
6
DOT
62
7
100
AcDbCircle
10
1670.970159669958
20
1162.152098016629
30
0.0
40
3.500000000000
0
CIRCLE
5
86f
100
AcDbEntity
8
1-0
6
DOT
62
7
100
AcDbCircle
10
1670.970159669958
20
1162.152098016629
30
0.0
40
3.500000000000
0
LINE
5
870
100
AcDbEntity
8
F-F_J_ADD
6
HIDDEN
62
253
100
AcDbLine
10
1683.155540248089
20
1172.152098016629
30
0.0
11
1670.970159669958
21
1172.152098016629
31
0.0
0
LINE
5
871
100
AcDbEntity
8
F-F_J_ADD
6
HIDDEN
62
253
100
AcDbLine
10
1670.970159669958
20
1172.152098016629
30
0.0
11
1660.457568237971
21
1172.152098016629
31
0.0
0
LINE
5
872
100
AcDbEntity
8
F-F_J_ADD
6
HIDDEN
62
253
100
AcDbLine
10
1660.970159669958
20
1176.010985250317
30
0.0
11
1660.970159669958
21
1162.152098016629
31
0.0
0
LINE
5
873
100
AcDbEntity
8
F-F_J_ADD
6
HIDDEN
62
253
100
AcDbLine
10
1660.970159669958
20
1162.152098016629
30
0.0
11
1660.970159669958
21
1150.625095502160
31
0.0
0
LINE
5
874
100
AcDbEntity
8
F-F_J_ADD
6
HIDDEN
62
253
100
AcDbLine
10
1670.970159669958
20
1152.152098016629
30
0.0
11
1683.155540248089
21
1152.152098016629
31
0.0
0
LINE
5
875
100
AcDbEntity
8
1-0
6
CENTER
62
7
100
AcDbLine
10
1670.970159669958
20
1162.152098016629
30
0.0
11
1680.970159669958
21
1162.152098016629
31
0.0
0
LINE
5
876
100
AcDbEntity
8
1-0
6
CENTER
62
7
100
AcDbLine
10
1670.970159669958
20
1162.152098016629
30
0.0
11
1660.970159669958
21
1162.152098016629
31
0.0
0
LINE
5
877
100
AcDbEntity
8
1-0
6
CENTER
62
7
100
AcDbLine
10
1670.970159669958
20
1162.152098016629
30
0.0
11
1670.970159669958
21
1152.152098016629
31
0.0
0
LINE
5
878
100
AcDbEntity
8
1-0
6
CENTER
62
7
100
AcDbLine
10
1670.970159669958
20
1162.152098016629
30
0.0
11
1670.970159669958
21
1172.152098016629
31
0.0
0
CIRCLE
5
879
100
AcDbEntity
8
1-0
6
DOT
62
7
100
AcDbCircle
10
1670.970159669958
20
966.152098016629
30
0.0
40
3.500000000000
0
CIRCLE
5
87a
100
AcDbEntity
8
1-0
6
DOT
62
7
100
AcDbCircle
10
1670.970159669958
20
966.152098016629
30
0.0
40
3.500000000000
0
CIRCLE
5
87b
100
AcDbEntity
8
1-0
6
DOT
62
7
100
AcDbCircle
10
1670.970159669958
20
966.152098016629
30
0.0
40
3.500000000000
0
LINE
5
87c
100
AcDbEntity
8
F-F_J_ADD
6
HIDDEN
62
253
100
AcDbLine
10
1683.155540248089
20
976.152098016629
30
0.0
11
1670.970159669958
21
976.152098016629
31
0.0
0
LINE
5
87d
100
AcDbEntity
8
F-F_J_ADD
6
HIDDEN
62
253
100
AcDbLine
10
1670.970159669958
20
976.152098016629
30
0.0
11
1660.457568237971
21
976.152098016629
31
0.0
0
LINE
5
87e
100
AcDbEntity
8
F-F_J_ADD
6
HIDDEN
62
253
100
AcDbLine
10
1660.970159669958
20
980.010985250317
30
0.0
11
1660.970159669958
21
966.152098016629
31
0.0
0
LINE
5
87f
100
AcDbEntity
8
F-F_J_ADD
6
HIDDEN
62
253
100
AcDbLine
10
1660.970159669958
20
966.152098016629
30
0.0
11
1660.970159669958
21
954.625095502160
31
0.0
0
LINE
5
880
100
AcDbEntity
8
F-F_J_ADD
6
HIDDEN
62
253
100
AcDbLine
10
1670.970159669958
20
956.152098016629
30
0.0
11
1683.155540248089
21
956.152098016629
31
0.0
0
LINE
5
881
100
AcDbEntity
8
1-0
6
CENTER
62
7
100
AcDbLine
10
1670.970159669958
20
966.152098016629
30
0.0
11
1680.970159669958
21
966.152098016629
31
0.0
0
LINE
5
882
100
AcDbEntity
8
1-0
6
CENTER
62
7
100
AcDbLine
10
1670.970159669958
20
966.152098016629
30
0.0
11
1660.970159669958
21
966.152098016629
31
0.0
0
LINE
5
883
100
AcDbEntity
8
1-0
6
CENTER
62
7
100
AcDbLine
10
1670.970159669958
20
966.152098016629
30
0.0
11
1670.970159669958
21
956.152098016629
31
0.0
0
LINE
5
884
100
AcDbEntity
8
1-0
6
CENTER
62
7
100
AcDbLine
10
1670.970159669958
20
966.152098016629
30
0.0
11
1670.970159669958
21
976.152098016629
31
0.0
0
CIRCLE
5
885
100
AcDbEntity
8
1-0
6
DOT
62
7
100
AcDbCircle
10
1670.970159669958
20
770.152098016629
30
0.0
40
3.500000000000
0
CIRCLE
5
886
100
AcDbEntity
8
1-0
6
DOT
62
7
100
AcDbCircle
10
1670.970159669958
20
770.152098016629
30
0.0
40
3.500000000000
0
CIRCLE
5
887
100
AcDbEntity
8
1-0
6
DOT
62
7
100
AcDbCircle
10
1670.970159669958
20
770.152098016629
30
0.0
40
3.500000000000
0
LINE
5
888
100
AcDbEntity
8
F-F_J_ADD
6
HIDDEN
62
253
100
AcDbLine
10
1683.155540248089
20
780.152098016629
30
0.0
11
1670.970159669958
21
780.152098016629
31
0.0
0
LINE
5
889
100
AcDbEntity
8
F-F_J_ADD
6
HIDDEN
62
253
100
AcDbLine
10
1670.970159669958
20
780.152098016629
30
0.0
11
1660.457568237971
21
780.152098016629
31
0.0
0
LINE
5
88a
100
AcDbEntity
8
F-F_J_ADD
6
HIDDEN
62
253
100
AcDbLine
10
1660.970159669958
20
784.010985250317
30
0.0
11
1660.970159669958
21
770.152098016629
31
0.0
0
LINE
5
88b
100
AcDbEntity
8
F-F_J_ADD
6
HIDDEN
62
253
100
AcDbLine
10
1660.970159669958
20
770.152098016629
30
0.0
11
1660.970159669958
21
758.625095502160
31
0.0
0
LINE
5
88c
100
AcDbEntity
8
F-F_J_ADD
6
HIDDEN
62
253
100
AcDbLine
10
1670.970159669958
20
760.152098016629
30
0.0
11
1683.155540248089
21
760.152098016629
31
0.0
0
LINE
5
88d
100
AcDbEntity
8
1-0
6
CENTER
62
7
100
AcDbLine
10
1670.970159669958
20
770.152098016629
30
0.0
11
1680.970159669958
21
770.152098016629
31
0.0
0
LINE
5
88e
100
AcDbEntity
8
1-0
6
CENTER
62
7
100
AcDbLine
10
1670.970159669958
20
770.152098016629
30
0.0
11
1660.970159669958
21
770.152098016629
31
0.0
0
LINE
5
88f
100
AcDbEntity
8
1-0
6
CENTER
62
7
100
AcDbLine
10
1670.970159669958
20
770.152098016629
30
0.0
11
1670.970159669958
21
760.152098016629
31
0.0
0
LINE
5
890
100
AcDbEntity
8
1-0
6
CENTER
62
7
100
AcDbLine
10
1670.970159669958
20
770.152098016629
30
0.0
11
1670.970159669958
21
780.152098016629
31
0.0
0
CIRCLE
5
891
100
AcDbEntity
8
1-0
6
DOT
62
7
100
AcDbCircle
10
1864.970159669959
20
784.152098016629
30
0.0
40
3.500000000000
0
CIRCLE
5
892
100
AcDbEntity
8
1-0
6
DOT
62
7
100
AcDbCircle
10
1864.970159669959
20
784.152098016629
30
0.0
40
3.500000000000
0
CIRCLE
5
893
100
AcDbEntity
8
1-0
6
DOT
62
7
100
AcDbCircle
10
1864.970159669959
20
784.152098016629
30
0.0
40
3.500000000000
0
LINE
5
894
100
AcDbEntity
8
F-F_J_ADD
6
HIDDEN
62
253
100
AcDbLine
10
1877.155540248089
20
794.152098016629
30
0.0
11
1864.970159669959
21
794.152098016629
31
0.0
0
LINE
5
895
100
AcDbEntity
8
F-F_J_ADD
6
HIDDEN
62
253
100
AcDbLine
10
1864.970159669959
20
794.152098016629
30
0.0
11
1854.457568237972
21
794.152098016629
31
0.0
0
LINE
5
896
100
AcDbEntity
8
F-F_J_ADD
6
HIDDEN
62
253
100
AcDbLine
10
1854.970159669959
20
798.010985250317
30
0.0
11
1854.970159669959
21
784.152098016629
31
0.0
0
LINE
5
897
100
AcDbEntity
8
F-F_J_ADD
6
HIDDEN
62
253
100
AcDbLine
10
1854.970159669959
20
784.152098016629
30
0.0
11
1854.970159669959
21
772.625095502160
31
0.0
0
LINE
5
898
100
AcDbEntity
8
F-F_J_ADD
6
HIDDEN
62
253
100
AcDbLine
10
1864.970159669959
20
774.152098016629
30
0.0
11
1877.155540248089
21
774.152098016629
31
0.0
0
LINE
5
899
100
AcDbEntity
8
1-0
6
CENTER
62
7
100
AcDbLine
10
1864.970159669959
20
784.152098016629
30
0.0
11
1874.970159669959
21
784.152098016629
31
0.0
0
LINE
5
89a
100
AcDbEntity
8
1-0
6
CENTER
62
7
100
AcDbLine
10
1864.970159669959
20
784.152098016629
30
0.0
11
1854.970159669959
21
784.152098016629
31
0.0
0
LINE
5
89b
100
AcDbEntity
8
1-0
6
CENTER
62
7
100
AcDbLine
10
1864.970159669959
20
784.152098016629
30
0.0
11
1864.970159669959
21
774.152098016629
31
0.0
0
LINE
5
89c
100
AcDbEntity
8
1-0
6
CENTER
62
7
100
AcDbLine
10
1864.970159669959
20
784.152098016629
30
0.0
11
1864.970159669959
21
794.152098016629
31
0.0
0
CIRCLE
5
89d
100
AcDbEntity
8
1-0
6
DOT
62
7
100
AcDbCircle
10
1864.970159669959
20
1344.152098016629
30
0.0
40
3.500000000000
0
CIRCLE
5
89e
100
AcDbEntity
8
1-0
6
DOT
62
7
100
AcDbCircle
10
1864.970159669959
20
1344.152098016629
30
0.0
40
3.500000000000
0
CIRCLE
5
89f
100
AcDbEntity
8
1-0
6
DOT
62
7
100
AcDbCircle
10
1864.970159669959
20
1344.152098016629
30
0.0
40
3.500000000000
0
LINE
5
8a0
100
AcDbEntity
8
F-F_J_ADD
6
HIDDEN
62
253
100
AcDbLine
10
1877.155540248089
20
1354.152098016629
30
0.0
11
1864.970159669959
21
1354.152098016629
31
0.0
0
LINE
5
8a1
100
AcDbEntity
8
F-F_J_ADD
6
HIDDEN
62
253
100
AcDbLine
10
1864.970159669959
20
1354.152098016629
30
0.0
11
1854.457568237972
21
1354.152098016629
31
0.0
0
LINE
5
8a2
100
AcDbEntity
8
F-F_J_ADD
6
HIDDEN
62
253
100
AcDbLine
10
1854.970159669959
20
1358.010985250317
30
0.0
11
1854.970159669959
21
1344.152098016629
31
0.0
0
LINE
5
8a3
100
AcDbEntity
8
F-F_J_ADD
6
HIDDEN
62
253
100
AcDbLine
10
1854.970159669959
20
1344.152098016629
30
0.0
11
1854.970159669959
21
1332.625095502160
31
0.0
0
LINE
5
8a4
100
AcDbEntity
8
F-F_J_ADD
6
HIDDEN
62
253
100
AcDbLine
10
1864.970159669959
20
1334.152098016629
30
0.0
11
1877.155540248089
21
1334.152098016629
31
0.0
0
LINE
5
8a5
100
AcDbEntity
8
1-0
6
CENTER
62
7
100
AcDbLine
10
1864.970159669959
20
1344.152098016629
30
0.0
11
1874.970159669959
21
1344.152098016629
31
0.0
0
LINE
5
8a6
100
AcDbEntity
8
1-0
6
CENTER
62
7
100
AcDbLine
10
1864.970159669959
20
1344.152098016629
30
0.0
11
1854.970159669959
21
1344.152098016629
31
0.0
0
LINE
5
8a7
100
AcDbEntity
8
1-0
6
CENTER
62
7
100
AcDbLine
10
1864.970159669959
20
1344.152098016629
30
0.0
11
1864.970159669959
21
1334.152098016629
31
0.0
0
LINE
5
8a8
100
AcDbEntity
8
1-0
6
CENTER
62
7
100
AcDbLine
10
1864.970159669959
20
1344.152098016629
30
0.0
11
1864.970159669959
21
1354.152098016629
31
0.0
0
CIRCLE
5
8a9
100
AcDbEntity
8
1-0
6
DOT
62
7
100
AcDbCircle
10
1864.970159669959
20
1064.152098016629
30
0.0
40
3.500000000000
0
CIRCLE
5
8aa
100
AcDbEntity
8
1-0
6
DOT
62
7
100
AcDbCircle
10
1864.970159669959
20
1064.152098016629
30
0.0
40
3.500000000000
0
CIRCLE
5
8ab
100
AcDbEntity
8
1-0
6
DOT
62
7
100
AcDbCircle
10
1864.970159669959
20
1064.152098016629
30
0.0
40
3.500000000000
0
LINE
5
8ac
100
AcDbEntity
8
F-F_J_ADD
6
HIDDEN
62
253
100
AcDbLine
10
1877.155540248089
20
1074.152098016629
30
0.0
11
1864.970159669959
21
1074.152098016629
31
0.0
0
LINE
5
8ad
100
AcDbEntity
8
F-F_J_ADD
6
HIDDEN
62
253
100
AcDbLine
10
1864.970159669959
20
1074.152098016629
30
0.0
11
1854.457568237972
21
1074.152098016629
31
0.0
0
LINE
5
8ae
100
AcDbEntity
8
F-F_J_ADD
6
HIDDEN
62
253
100
AcDbLine
10
1854.970159669959
20
1078.010985250317
30
0.0
11
1854.970159669959
21
1064.152098016629
31
0.0
0
LINE
5
8af
100
AcDbEntity
8
F-F_J_ADD
6
HIDDEN
62
253
100
AcDbLine
10
1854.970159669959
20
1064.152098016629
30
0.0
11
1854.970159669959
21
1052.625095502160
31
0.0
0
LINE
5
8b0
100
AcDbEntity
8
F-F_J_ADD
6
HIDDEN
62
253
100
AcDbLine
10
1864.970159669959
20
1054.152098016629
30
0.0
11
1877.155540248089
21
1054.152098016629
31
0.0
0
LINE
5
8b1
100
AcDbEntity
8
1-0
6
CENTER
62
7
100
AcDbLine
10
1864.970159669959
20
1064.152098016629
30
0.0
11
1874.970159669959
21
1064.152098016629
31
0.0
0
LINE
5
8b2
100
AcDbEntity
8
1-0
6
CENTER
62
7
100
AcDbLine
10
1864.970159669959
20
1064.152098016629
30
0.0
11
1854.970159669959
21
1064.152098016629
31
0.0
0
LINE
5
8b3
100
AcDbEntity
8
1-0
6
CENTER
62
7
100
AcDbLine
10
1864.970159669959
20
1064.152098016629
30
0.0
11
1864.970159669959
21
1054.152098016629
31
0.0
0
LINE
5
8b4
100
AcDbEntity
8
1-0
6
CENTER
62
7
100
AcDbLine
10
1864.970159669959
20
1064.152098016629
30
0.0
11
1864.970159669959
21
1074.152098016629
31
0.0
0
ENDSEC
 0
SECTION
  2
OBJECTS
 0
DICTIONARY
  5
C
100
AcDbDictionary
  3
ACAD_GROUP
350
D
  3
ACAD_MLINESTYLE
350
E
 0
DICTIONARY
  5
D
102
{ACAD_REACTORS
102
}
100
AcDbDictionary
 0
DICTIONARY
  5
E
102
{ACAD_REACTORS
102
}
100
AcDbDictionary
  3
STANDARD
350
13
0
MLINESTYLE
  5
13
102
{ACAD_REACTORS
102
}
100
AcDbMlineStyle
  2
STANDARD
 70
    0
3

62
256
51
90.0
52
90.0
71
0
0
ACDBPLACEHOLDER
  5
14
102
{ACAD_REACTORS
102
}
0
ENDSEC
0
EOF
